Song name
# A B C D E F G H I J K L M N O P Q R S T U V W X Y Z

Frightened Rabbit - The Woodpile tab

So I took up guitar 6 months ago, and now playing it is all I want to do. I'd rather
practice than go out. I love this song, and there's a great acoustic version on YouTube
(search Line of Best Fit). In it, low E is dropped down to D-flat (Db) so I tuned down 
all the strings. No idea if that's done ever, but Scott seems to have done it, works here and
it's played with almost the same fingering as the album version. I just can't figure out 
the chords in the chorus. Anyone knows them, let's have 'em.


INTRO + VERSE 1

db|-----------------------------------------------------------------------|
Bb|---------------------------------------------------------------------5-|
F#|------------------------------------0---------------7--------0---------|
Db|-----4------2-0-----0-------0---------------7---------0----------------|
Ab|-----------------------------------------------------------------------|
Db|-0-------0------5-------4-------0-------0-------0--------5-------5-----|

x6


PRE-CHORUS

db|------------------------------0--------0--------0--------0-------0-----|
Bb|------------------------------3-----2--3-----2--3-----2--3---2---3-----|
F#|------------------------------0-----x--0-----x--0-----x--0---x---2-----|
Db|-----4-------2-0--------------0-----4--0-----4--0-----4--0---4---0-----|
Ab|------------------4--5--2--0--5-----4--5-----4--5-----4--5---4---0-----|
Db|-0------0---------------------5-----4--5-----4--5-----4--5---4---0-----|

CHORUS - wish I knew. I tried to adapt from album-version tabs, but those I've seen
don't seem right to begin with, so...

VERSE 2 (same as 1)

db|-----------------------------------------------------------------------|
Bb|---------------------------------------------------------------------5-|
F#|------------------------------------0---------------7--------0---------|
Db|-----4------2-0-----0-------0---------------7---------0----------------|
Ab|-----------------------------------------------------------------------|
Db|-0-------0------5-------4-------0-------0-------0--------5-------5-----|

x3

PRE-CHORUS

db|------------------------------0--------0--------0--------0-------0-----|
Bb|------------------------------3-----2--3-----2--3-----2--3---2---3-----|
F#|------------------------------0-----x--0-----x--0-----x--0---x---2-----|
Db|-----4-------2-0--------------0-----4--0-----4--0-----4--0---4---0-----|
Ab|------------------4--5--2--0--5-----4--5-----4--5-----4--5---4---0-----|
Db|-0------0---------------------5-----4--5-----4--5-----4--5---4---0-----|

CHORUS ?

BRIDGE

db|-----------------0-|
Bb|--------3--------3-|
F#|------2----------2-| Play 16x while
Db|--2h4------------4-| throwing in a few
Ab|-----------------0-| of these strums
Db|-----------------0-|


LEAD & CHORUS 3 ?
Tap to rate this tab
 
# A B C D E F G H I J K L M N O P Q R S T U V W X Y Z