Song name
# A B C D E F G H I J K L M N O P Q R S T U V W X Y Z

From Autumn To Ashes - Everything I Need tab

Everything I Need- From Autumn to Ashes

Intro            
D||------------------------|-------|
A||------------------------|-------|
F||------------------------|-------|     
C||--0----3S----8----3S----|--7----|
G||--0----3S----8----3S----|--7----|
C||--0----3S----8----3S----|--7----|





Verse   
--------------------------|--------------------------|--------------------------|
--------------------------|--------------------------|--------------------------|
--14----14----14----14----|--14----12----15----15----|--14----12----14----10----|
--------------------------|--------------------------|--------------------------|
--12----12----12----12----|--12----10----13----13----|--12----10----12-----8----|
--------------------------|--------------------------|--------------------------|  


   
--------------------------|--------------------------|--------|
--------------------------|--------------------------|--------|
--17----17----10----10----|--14----14----14----14----|--15----|
--------------------------|--------------------------|--------|
--15----15-----8-----8----|--12----12----12----12----|--13----|
--------------------------|--------------------------|--------|





Chorus  
----------------------|----------------------|-----------------|
----------------------|----------------------|-----------------|
----------------------|----------------------|-----------------|
--7----7----8----7----|-------7----7----7----|--8----7---------|
----------------------|--8-------------------|------------8----|
----------------------|----------------------|-----------------|

  


Bridge

   PM   PM                  PM   PM                                  
|------------------------|------------------------|------------|-------|-------------|
|------------------------|------------------------|------------|-------|-------------|
|------------14----14----|------------14----14----|------------|-------|--10----9----|
|--0----0----------------|--0----0----------------|--8----0----|-------|-------------|
|--0----0----12----12----|--0----0----12----12----|--8----0----|-------|---8----7----|
|--0----0----------------|--0----0----------------|--8----0----|-------|-------------|





 trem picking part
--------------------------|--------------------------|--------------------||
--------------------------|--------------------------|--------------------||
--14----15----14----15----|--17----15----14----10----|--14----15----14----||
--------------------------|--------------------------|--------------------||
--12----13----12----13----|--15----13----12-----8----|--12----13----12----||
--------------------------|--------------------------|--------------------||

Tap to rate this tab
# A B C D E F G H I J K L M N O P Q R S T U V W X Y Z