Song name
# A B C D E F G H I J K L M N O P Q R S T U V W X Y Z

Front Line Assembly - Release tab

Front line assembly: Release 

Drop D


Starts at 1:21
E|--------------------------------------------------------------------------|
B|--------------------------------------------------------------------------|
G|--------------------------------------------------------------------------|
D|------------------------------------------------------------------x2------|
A|-6666-6666-66---5555-5555----------0000-0000-00-0000-0000-00--------------|
D|-6666-6666-66---5555-5555-3-5-3-5--0000-0000-00-0000-0000-00--------------|
                            PM----

Again 2:28

E|--------------------------------------------------------------------------|
B|--------------------------------------------------------------------------|
G|--------------------------------------------------------------------------|
D|------------------------------------------------------------------x2------|
A|-6666-6666-66---5555-5555----------0000-0000-00-0000-0000-00--------------|
D|-6666-6666-66---5555-5555-3-5-3-5--0000-0000-00-0000-0000-00--------------|
                            PM-----
3:13

E|--------------------------------------------------------------------------|
B|--------------------------------------------------------------------------|
G|--------------------------------------------------------------------------|
D|--------------------------------------------------------------------------|
A|-666666555555555111111000000000-------------------------------------------|
D|-666666555555555111111000000000-------------------------------------------|

3:19

E|--------------------------------------------------------------------------|
B|--------------------------------------------------------------------------|
G|--------------------------------------------------------------------------|
D|--------------------------------------------------------------------------|
A|-666666555555555101010101010121212121212121212----------------------------|
D|-666666555555555101010101010121212121212121212----------------------------|

3:24

E|--------------------------------------------------------------------------|
B|--------------------------------------------------------------------------|
G|--------------------------------------------------------------------------|
D|--------------------------------------------------------------------------|
A|-666666555555555111111000000000-------------------------------------------|
D|-666666555555555111111000000000-------------------------------------------|

3:30

E|--------------------------------------------------------------------------|
B|--------------------------------------------------------------------------|
G|--------------------------------------------------------------------------|
D|--------------------------------------------------------------------------|
A|-666666555555555101010101010121212121212121212----------------------------|
D|-666666555555555101010101010121212121212121212----------------------------|

3:36

E|--------------------------------------------------------------------------|
B|--------------------------------------------------------------------------|
G|--------------------------------------------------------------------------|
D|--------------------------------------------------------------------------|
A|-0---0---0---0-0----------------------------------------------------------|
D|-00000000000000000--------------------------------------------------------|
    --- --- --- - -- PM                     x 12

4:09

E|--------------------------------------------------------------------------|
B|--------------------------------------------------------------------------|
G|--------------------------------------------------------------------------|
D|------------------------------------------------------------------x2------|
A|-6666-6666-66---5555-5555----------0000-0000-00-0000-0000-00--------------|
D|-6666-6666-66---5555-5555-3-5-3-5--0000-0000-00-0000-0000-00--------------|
                            PM-----
Tap to rate this tab
# A B C D E F G H I J K L M N O P Q R S T U V W X Y Z