Song name
# A B C D E F G H I J K L M N O P Q R S T U V W X Y Z

Frontier Ruckus - Eternity Of Dimming tab

--------------------------------------------------------------------
                Eternity of Dimming - Frontier Ruckus
--------------------------------------------------------------------
Tabbed by: 3lacksabbath81
Email: sskinner@wit.edu

In the Black We All Look so Dim:

Matthew Milia: songs, voice, guitar, harmonica, pedal steel
David W. Jones: banjo, voice, dobro
Zachary Nichols: brass, singing-saw, melodica, keyboards
Ryan Etzcorn: drums, percussion

Tuning: Standard [Capo 2nd Fret]
               
            Intro Riff            
               Em                         C           D                                           
e|--------||-------2--0---|------------------------|--2--2-0------------|
B|--0--0--||---0---0----3-|-----3---------1----1-0-|--3--3-0--3/5p0-----|
G|--0--0--||---0---0------|-2/4---4\2-----0----0-0-|--2--2----------0---|
D|--0--0--||---2---2------|------------2--2----2-0-|--0--0------------0-|
A|--0--0--||---2----------|---------------3----3-0-|--------------------|
E|--------||---0----------|------------------------|--------------------|
    Am
e|-------------------------||
B|--1--1----0h1-0----------||
G|--2--2----2-----3-2-0----|| x4 
D|--2--2----2-----------0--||
A|--0--0----0--------------||
E|-------------------------||

Intro on Banjo: [Capo 2nd Fret]
          Em                          C
d|------||----4--2---|-----------------2---2--0--|
B|--0-0-||-0--0----3-|------3----------1---1-----|
G|--0-0-||-0--0------|--2/4---4\2-0----0---0-----|
D|--0-0-||-2--2------|--------------2--2---2-----|
g|------||-----------|---------------------------|
    D                  Am
d|--4---4-0---------|------2-------------||
B|--3---3---3/5p0---|--0h1---------------||
G|--2---2---------0-|---------3-2-0------||
D|--0---------------|---------------0-2--||
g|------------------|--------------------||

Chords for Banjo: 

    Em  C     D     Em           Am   Am7  C    C7   Bm
d|--2---2-----4-----2------------2----4----2----2----4---|
B|--0---1-----3-----0----0--0----1----1----1----1----3---|
G|--0---0-----2-----0----0--0----2----2----0----3----4---|
D|--2---2-----0-----2----4--5----0---------2----2----4---|
g|-------------------------------------------------------|

   Verse I

   August obliterates trust and its in sun-dust Im  found
    Em             C                 D                Em 
e|-----------------------------------2------2-------------------|
B|--0------0-------1----1------------3------3---------0---------|
G|--0------0-------0----0------------2------2---------0--0--0---|
D|--2------2-------2----2------------0------0---------2--0--0---|
A|--2------2-------3----3-----------------------------2--0--0---|
E|--0------0------------------------------------------0--2--3---|

  Home to swill the shrilly insect sound
    Am              Am7            C         C7
e|--0-----0---------3-------3---------------------------------|
B|--1-----1---------1-------1------1-----1---1~-1~---1~--1~---|
G|--2-----2---------2-------2------0-----0---3~-3~---3~--3~---|
D|--2-----2---------2-------2------2-----2---2~-2~---2~--2~---|
A|--0-----0---------0-------0------3-----3---3~-3~---3~--3~---|
E|------------------------------------------------------------|
  

   Verse II

   Stumble to the Dairy Queen       Thumb a People   Magazine
    Em             C                 D                Em        
e|-----------------------------------2------2-------------------|
B|--0------0-------1----1------------3------3---------0---------|
G|--0------0-------0----0------------2------2---------0--0--0---|
D|--2------2-------2----2------------0------0---------2--0--0---|
A|--2------2-------3----3-----------------------------2--0--0---|
E|--0------0------------------------------------------0--2--3---|

   Glossy as the   bright leaf greened and drowned    In the light
    Am              Am7                    C         C7
e|--0-----0---------3-------3-----------------------------------------|
B|--1-----1---------1-------1--------------1-----1---1~-1~---1~--1~---|
G|--2-----2---------2-------2--------------0-----0---3~-3~---3~--3~---|
D|--2-----2---------2-------2--------------2-----2---2~-2~---2~--2~---|
A|--0-----0---------0-------0--------------3-----3---3~-3~---3~--3~---|
E|--------------------------------------------------------------------|

     Em                         C           D                                           
e|-------2--0---|------------------------|--2--2-0------------|
B|---0---0----3-|-----3---------1----1-0-|--3--3-0--3/5p0-----|
G|---0---0------|-2/4---4\2-----0----0-0-|--2--2----------0---|
D|---2---2------|------------2--2----2-0-|--0--0------------0-|
A|---2----------|---------------3----3-0-|--------------------|
E|---0----------|------------------------|--------------------|
    Am
e|-------------------------||
B|--1--1----0h1-0----------||
G|--2--2----2-----3-2-0----|| x2 
D|--2--2----2-----------0--||
A|--0--0----0--------------||
E|-------------------------||

   
    Chorus
    
    An eternity of dimming You  turn to me Im slimming
    Em             C            D              Em
e|------------------------------2------2-----------------------------------|
B|--0------0-------1----1-------3------3-------0---------------------------|
G|--0------0-------0----0-------2------2-------0---------------------------|
D|--2------2-------2----2-------0------0-------2---(2)-(2)-(2)-(2)-(2)-(2)-|
A|--2------2-------3----3----------------------2---(2)-(2)-(2)-(2)-(2)-(2)-|
E|--0------0-----------------------------------0----0---0---0---0---0---0--|
                                                  *Banjo & keys lick No.1*
   The graininess is winning  every night
    Am               Am7            C         C7
e|--0-----0----------3--------3--------------------------------|
B|--1-----1----------1--------1-----1-----1---1~-1~---1~--1~---|
G|--2-----2----------2--------2-----0-----0---3~-3~---3~--3~---|
D|--2-----2----------2--------2-----2-----2---2~-2~---2~--2~---|
A|--0-----0----------0--------0-----3-----3---3~-3~---3~--3~---|
E|-------------------------------------------------------------|

   Claritys a     rarity that  once was  just beginning
    Em             C            D              Em
e|------------------------------2------2-----------------------------------|
B|--0------0-------1----1-------3------3-------0---------------------------|
G|--0------0-------0----0-------2------2-------0---------------------------|
D|--2------2-------2----2-------0------0-------2---(2)-(2)-(2)-(2)-(2)-(2)-|
A|--2------2-------3----3----------------------2---(2)-(2)-(2)-(2)-(2)-(2)-|
E|--0------0-----------------------------------0--- 0---0---0---0---0---0--|
                                                  *Banjo & keys lick No.2*

    Now hellish unem-bellished foreign blurs In the corners of my eyesight
e|--------------2----2------------------------------0----------3--------|
B|--1--1--------3----3---------1-------1------------1----------1--------|
G|--2--2--------4----4---------0-------0------------2----------2--------|
D|--2--2--------4----4---------2-------2------------2----------2--------|
A|--0--0--------2----2---------3-------3------------0----------0--------|
E|--------------2----2--------------------------------------------------|

*Licks on Banjo* Capo 2nd

    Variation No. 1          Variation No. 2
d|------------4--2--0--2-|--2h4--------------2--|
B|---------------------1-|------3------------1--|
G|--------2-4----------2-|--------4-3-2-0----2--|
D|--0-2-4--------------0-|----------------0-----|
g|-----------------------|----------------------|

  Intro Riff 
     Em                         C           D                                           
e|-------2--0---|------------------------|--2--2-0------------|
B|---0---0----3-|-----3---------1----1-0-|--3--3-0--3/5p0-----|
G|---0---0------|-2/4---4\2-----0----0-0-|--2--2----------0---|
D|---2---2------|------------2--2----2-0-|--0--0------------0-|
A|---2----------|---------------3----3-0-|--------------------|
E|---0----------|------------------------|--------------------|
    Am
e|-------------------------||
B|--1--1----0h1-0----------||
G|--2--2----2-----3-2-0----|| x2 
D|--2--2----2-----------0--||
A|--0--0----0--------------||
E|-------------------------||


Verse III

 Em                C
In this local exit highway night
        D                      Em
We must grow accustomed to the sight
    Am         Am7                 C              C7     
And empty all surprise to see the capsize of the semis

 Em                                 C     
Cause nothing will stop the worlds physics from working
        D                    Em
Or the manner in which its  situated and lurking
 Am            Am7
Permanently so externally
           C            C7
But theres pleasure and death in each second to be reckoned with



Verse IV

 Em                               C
And theres boredom and sex within each wild minute
        D                     Em
And the mildest hour has some deadly power in it
    Am                   Am7
And maybe ill cower with Yia Yias silk flowers
       C                        C7
As the motion sensor light does brighten and sour



(Strumming Pattern Changes here) 

 Em                         C
On the back patio where the raccoons go
 D                               Em
Whining and divining through the grainy night glow
    Am               Am7
The same as me as Im fumbling to see
   C                       C7
An inch off my face with a pinch of disgrace


Small Breakdown (no Banjo)

 Em                         C            
Each photo of the summer is one in the same
       D                       Em 
With a bloodshot number in the corner of the frame
 Am                      Am7       
Dating each time that we became
C                   C7
Memorialized in the dimming


Repeat Chorus & Intro Riff x2


Verse V

 Em             C
A bat circles above my brain
     D              Em
As I walk down St. Joseph in the dusky graininess, 
Am        Am7            C                    C7
yes this gorgeousness is growing too dark too mention

 Em                 C
What becomes of the summer skin
        D                    Em
When it disintegrates in the blackness of the past
Am          Am7       C          C7
At last Ive become an extension

Breakdown/Ending of the Dimming

     Am          Bm            C             D
e|---0-----------2-------------------------------------------|
B|---1-----------3-------------1-------------3---------------|
G|---2-----------4-------------0-------------0---------------|
D|---2-----------4-------------2-------------4---------------|
A|---0-----------2-------------3-------------5---------------|
E|---------------2-------------------------------------------|

   Banjo Capo 2nd
d|------4--2---------5--4----------7---5---------9---7-------|
B|------------3------------5--------------7-------------8----|
G|-----------------------------------------------------------|
D|-----------------------------------------------------------|
g|-----------------------------------------------------------|

     Am          Bm            Em/C          Am
e|---0-----------2---------------------------0---------------|
B|---1-----------3-------------0-------------1---------------|
G|---2-----------4-------------0-------------2---------------|
D|---2-----------4-------------2-------------2---------------|
A|---0-----------2-------------3-------------0---------------|
E|---------------2-------------------------------------------|

   
d|------4--2---------5--4----------7---5---------9---7-------|
B|------------3------------5--------------7-------------8----|
G|-----------------------------------------------------------|
D|-----------------------------------------------------------|
g|-----------------------------------------------------------|

  This happens twice, once with guitar and banjo 
  Then with the whole band. Second time through strum chords.



  Intro Riff 2x and end on Em with a final cycle through the verse Chords

  Sources:
  http://www.youtube.com/watch?v=yDn8YlCNcY0

  http://www.youtube.com/watch?v=o-HqRDSZgeU&feature=related


************************************

| /   slide up
| \   slide down
| h   hammer-on
| p   pull-off
| ~   vibrato

************************************
Tap to rate this tab
# A B C D E F G H I J K L M N O P Q R S T U V W X Y Z