Song name
# A B C D E F G H I J K L M N O P Q R S T U V W X Y Z

Frusciante John - As Can Be tab

e|------------------0----------------------------------------------|
B|-0---------------------------0---0---0---0----0------------------|
G|---2p0-0-----------------------3---3---3---3----2p0-0------------|
D|-------2--------------------------------------------2------------|
A|-----------------------------------------------------------------|
E|---------(x)(x)(x)--(x)(x)(x)-------------------------(x)(x)(x)--|

e|------------------------------------------------------0---|
B|----------0---0---0---0----0-----3----------3-3-3-3-3---0-|
G|------------3---3---3---3----2p0--------------------------|
D|-----------------------------------(x)(x)(x)--------------|
A|----------------------------------------------------------|
E|-(x)(x)(x)------------------------------------------------|

e|--------------------14-14-14-14-14-14------------------(0)--|
B|--3--0---0------------------------------------0-----3-------|
G|-------0---0------------------------------------2p0---------|
D|-------------4----------------------------------------------|
A|------------------------------------------------------------|
E|------------------------------------------------------------|

e|-----------0--------------------------------------1517-|
B|-0-----3-------------------0---0---0---0---15--17-------|
G|---2p0-----------------------3---3---3---3--------------|
D|---------------2h4p2h4p2--------------------------------|
A|--------------------------------------------------------|
E|--------------------------------------------------------|

e|-----------------------------------------------|
B|-------3-------3---3-------3-------3-------3---|
G|---0-------0-----------0-------0-------0-------|
D|-4---4---4---4---4---4---4---4---4---4---4---4-|
A|-----------------------------------------------|
E|-----------------------------------------------|

e|-15p12----12-15p12----12--------------------------------------------|
B|-------15-----------14----15p12----12--------------------------------|
G|--------------------------------14----14p12----12--------------------|
D|--------------------------------------------14---14p12----12-14--14-|
A|-------------------------------------------------------14------------|
E|---------------------------------------------------------------------|
                                   Dist.
e|-----------------------12-b15-------------------------------|
B|----------------12--15---------------------------------------|
G|--------12--14--------------------b14--12-12-12---12-b14--12-|
D|-12/14-------------------------------------------------------|
A|-------------------------------------------------------------|
E|-------------------------------------------------------------|

e|-----------------------------------------1216/18-b18--15----------|
B|--------------------------------------15------------------17-15-17-|
G|-11-12-11h12p11--------11---------12-------------------------------|
D|----------------14--14----12--14-----------------------------------|
A|-------------------------------------------------------------------|
E|-------------------------------------------------------------------|

e|---------------------------------------------------------------------------------------|
B|-0-3-0-3-0-b3--33/----------0-3-5-8-5---b8-8---8-b10-b10-b10-this-goes-on-for-a-while-|
G|--------------------b2p0-2-4-----------------------------------------------------------|
D|---------------------------------------------------------------------------------------|
A|---------------------------------------------------------------------------------------|
E|---------------------------------------------------------------------------------------|

Em     F#m    Em     F#m

Bm                 G
When you've got a clean smile
A                 F#
You can walk with style
G         A             D  F#
He can be naked with no brain
G         D         Em
In your pussy I'm cumming
           Bm        G        Bm
And I love you and always had to
      G           D      Em  G
Thank God I found you
 G            D            Em     Bm
Beautiful talking well it was to me
G      Bm              G    D
Do you see? Theres no more me
     Em          G
I'm happy as can be

Em  G  D
Tap to rate this tab
# A B C D E F G H I J K L M N O P Q R S T U V W X Y Z