Song name
# A B C D E F G H I J K L M N O P Q R S T U V W X Y Z

Fugazi - Five Corporations tab

The first song, I've ever tabbed:

Verse:

e|-----------------------------------------|
B|-----------------------------------------|
G|-----------------------------------------|
D|------------------0-3--6-3-6-3-6-6-------|
A|0-0-0-0-0-0-00000------------------------|
E|-----------------------------------------|
  Palm muted--------

Interlude:
e|-----------------------------------------|
B|-----------------------------------------|
G|7-7-7-7-77777-5-5-5-5-2-2-2-2------------|
D|7-7-7-7-77777-5-5-5-5-2-2-2-2------------|
A|5-5-5-5-55555-3-3-3-3-0-0-0-0------------|
E|-----------------------------------------|

Refrain:
e|-----------------------------------------|
B|-----------------------------------------|
G|-----------------------------------------|
D|--------------------------5--------------|
A|5-5-5-5-5-5-55555-5555555-5--------------|
E|--------------------------3--------------|
Tap to rate this tab
# A B C D E F G H I J K L M N O P Q R S T U V W X Y Z