Song name
# A B C D E F G H I J K L M N O P Q R S T U V W X Y Z

Funeral For A Friend - Damage Inc tab

in april of 2006, kerrang magazine issued a CD which was i remake of Metallica's Master 
puppets but with a different for artist for each song. funeral for a friend were asked 
cover track no. 8- DAMAGE INC.
for copyright reasons, each song had to have a faster timing, lower tuned bass and a 
solo.

/= slide
.= palm mute
t= hand tap
b= string bend

random whale cries then:

INTRO & OUTRO RIFF :1A
     (outro stops here) X
|-----------------------|------------------------|-------------------------|
|-----------------------|------------------------|-------------------------|
|-----------------------|------------------------|-------------------------|
|-2----2----2----2------|-2----2----2----2-------|-2--2--2--2--2--2--2-----|
|-2----2----2----2------|-2----2----2----2-------|-2--2--2--2--2--2--2-----|
|-0----0----0----0--111-|-0----0----0----0--111--|-0--0--0--0--0--0--0-111-|
                    ...                     ...                        ...


|-------------------------|
|-------------------------|
|-------------------------|
|-2--2--2--2--2--2--2-----|
|-2--2--2--2--2--2--2-----|
|-0--0--0--0--0--0--0-111-|
                      ...
|--------drum roll--------|

RIFF 1B (PLAY TWICE)
|-------------------------------------------|
|-------------------------------------------|
|-------------------------------------------|
|-------------------7/8---7/8---7/8---------|
|-------------------7/8---7/8---7/8---------|
|-0000000000000000--5/6---5/6---5/6---------|
  ................

|-------------------------------------------|
|-------------------------------------------|
|-------------------------------------------|
|-------------------7/8---7/8---7/8---------|
|-------------------7/8---7/8---7/8---------|
|-0000000000000000--5/6---5/6---5/6---------|
  ................

|-------------------------------------------|
|-------------------------------------------|
|-------------------------------------------|
|-------------------7/8---7/8---7/8---------|
|-------------------7/8---7/8---7/8---------|
|-0000000000000000--5/6---5/6---5/6---------|
  ................

|---------------------------------------|
|---------------------------------------|
|---------------------------------------|
|-------------------5/4---5/4---5/4-----|
|-------------------5/4---5/4---5/4-----|
|-2222222222222222--3/2---3/2---3/2-----|
  ................

CHORUS RIFF
|----------------------------------------------|
|----------------------------------------------|
|----------------------------------------------|
|--9---5---7---5--4----------------------------|
|--9---5---7---5--4----------------------------|
|--7---3---5---3--2-2222222222-----------------|
                    ..........

VERSE RIFF
|---------------------------------------------------------------------------|
|---------------------------------------------------------------------------|
|---------------------------------------------------------------------------|
|-8/5-----------8/5-----------8/5-----------8/5-----------8/4---------------|
|-8/5-----------8/5-----------8/5-----------8/5-----------8/4---------------|
|-6/3-0-000-000-6/3-0-000-000-6/3-0-000-000-6/3-0-000-000-6/2-2-222-222-----|
      . ... ...     . ... ...     . ... ...     . ... ...     . ... ...

BRIDGE RIFF 1 LEAD (PLAY 3 TIMES)
|---------------------------|-------------------------------|
|---------------------------|-------------------------------|
|---------------------------|-------------------------------|
|---------------------------|-------------------------------|
|-000-7-00-8-5-000-7-000-8--|-000-7-00-8-5-000-7-000-8------|
|------------------------6--|------------------------6------|
  ...   ..     ...   ...      ...   ..     ...   ...

|---------------------------|-------------------------|
|---------------------------|-------------------------|
|---------------------------|-------------------------|
|---------------------------|-------------------------|
|-000-7-00-8-5-000-7-000-8--|-000-7-00-8-5-7-3-5-2----|
|------------------------6--|-------------------------|
  ...   ..     ...   ...      ...   ..

BRIDGE RIFF 2 RYTHM (THIS PLAYS OVER LEAD, COMES IN 2ND TIME)

|------------------------------|
|------------------------------|
|------------------------------|  PLAY 8 TIMES
|-2-----------------------8-2--|
|-2-----------------------8-2--|
|-0-----------------------6-0--|

SHORT PAUSE, DRUM ROOL THEN:

SOLO (i only know a bit of it)

|15p14p1215p14p1215p14p1215p14p1215p14p1215p14p1215p14p1215p14p1215p14p12|
|------------------------------------|-----------------------------------|
|------------------------------------|-----------------------------------|
|------------------------------------|-----------------------------------|
|------------------------------------|-----------------------------------|
|------------------------------------|-----------------------------------|

|15p14p1215p14p1215p14p12-12--12--12-|14141415151517171715151514141415151515|
|-------------------------15b-15b-15b|--------------------------------------|
|------------------------------------|--------------------------------------|
|------------------------------------|--------------------------------------|
|------------------------------------|--------------------------------------|
|------------------------------------|--------------------------------------|

|-1616161515151313131515151515v-|
|-------------------------------|
|-------------------------------|
|-------------------------------|
|-------------------------------|
|-------------------------------|

   t     t     t     t     t     t     t     t     t     t     t     t
|--------------------------------------------------------------------------|
|-12p9p712p9p713p9p713p9p714p9p714p9p715p9p715p9p716p9p716p9p717p9p717p9p7-|
|--------------------------------------------------------------------------|
|--------------------------------------------------------------------------|
|--------------------------------------------------------------------------|
|--------------------------------------------------------------------------|

  t     t
|------------------------------------|
|19p9p719p9p7------------------------|
|------------------------------------| this is all of the solo i know
|------------------------------------|
|------------------------------------|
|------------------------------------|


THE ENTIRE SONG ITSELF GOES IN THIS ORDER

INTRO RIFF 1A
INTRO RIFF 1B (x2)
CHORUS RIFF
small pause
VERSE RIFF (x6)
CHORUS RIFF (x2)
INTRO RIFF (1st bar and 3rd bar only)
VERSE RIFF (x2)
CHORUS RIFF (x2)
BRIDGE (x3)
SOLO
BRIDGE (x1)
CHORUS RIFF
VERSE RIFF (x3)
CHORUS (x2)
INTRO RIFF (1st bar and 3rd bar only)
Tap to rate this tab
# A B C D E F G H I J K L M N O P Q R S T U V W X Y Z