Song name
# A B C D E F G H I J K L M N O P Q R S T U V W X Y Z

Funeral For A Friend - The Distance tab

Okay so this is an amazing song, I love it to bits. I think i've worked all this out 
correctly! I didn't put how many times you have to strum each chord because...honestly i'm 
too lazy and I figured you guys could work it out haha :D hope you enjoy!

Intro/Verse
*Clean*
D|---------------------------------------------------------------------------|
A|---------------------------------------------------------------------------|
F|---------------------------------------------------------------------------|
C|------------------------------------------------------------/10-10---------|
G|-------15--------------------15--------------------10-8-8------------------|
C|-12-15----0-0-0-0-0-0--12-15----0-0-0-0-0-0--12-15--------0-0-------0-0----|
(continued)
D|---------------------------------|
A|---------------------------------|
F|---------------------------------|
C|-10------------------------------|
G|-10------------------------------|
C|-10------------------------------|
*Distortion*
D|---------------------------------------------------------------------------|
A|---------------------------------------------------------------------------|
F|---------------------------------------------------------------------------|
C|------------------------------------------------------------/10-10---------|
G|-------15--------------------15--------------------10-8-8------------------|
C|-12-15----0-0-0-0-0-0--12-15----0-0-0-0-0-0--12-15--------0-0-------0-0----|
*continued*
D|---------------------------------|
A|---------------------------------|
F|---------------------------------|
C|-10------------------------------|
G|-10------------------------------|
C|-10------------------------------|

Chorus

D|---------------------------------------------------|
A|---------------------------------------------------|
F|-17-12-10-17-12-17-12------------------------------|
C|----------------------------------------------5----|
G|-15-10-8--15-10-15-10-------------------------3----|
C|----------------------3p0-0-0-3p0-0-0-3p0-0-0------|x1]
                           x---x   x---x   x---x-----|
                                ^Palm mute^

D|--------------------------------------------------|
A|--------------------------------------------------|
F|-17--12--10-17-12-17-12-9-------------------------|
C|--------------------------------------------------|
G|-15--10--8--15-10-15-10-7-------------------------|
C|--------------------------------------------------|[x1]

(Then play the verse and chorus again.)

Bridge
E|----------------|
B|----------------|
G|-7-9-7-17-7-9---|
D|----------------|
A|-5-7-5-15-5-7---|
E|----------------|[x1]
(Then play the verse part again with a clean tone and go back into distortion for 
the final chorus)

Hope this helps guys everyone :).
Tap to rate this tab
# A B C D E F G H I J K L M N O P Q R S T U V W X Y Z