Song name
# A B C D E F G H I J K L M N O P Q R S T U V W X Y Z

Future Idiots - I Knew You Were Trouble tab

Taylor Swift - I knew You Were Trouble (Future Idiots Cover)

Tabbed By Aaron


intro/verse (you can figure out the rythem)

e----------|
B----------|
G--7x777---|
D--xxxxx---|
A--5x555---|
E----------|

e------------------------|
B------------------------|
G--7777------------------|
D--7777-7777-9999-5555---|
A--5555-7777-9999-5555---|
E-------5555-7777-3333---|

(again the rythem is up to you)

(i knew you were trouble...)

pre-chorus/chorus/bridge

e-----------------|
B-----------------|
G-----------7-----|
D--9~-5~-7~-7-7---|
A--9~-5~-7~-5-7---|
E--7~-3~-5~---5---|

the ryhtems are different but these are the chords.
Tap to rate this tab
 
# A B C D E F G H I J K L M N O P Q R S T U V W X Y Z