Song name
# A B C D E F G H I J K L M N O P Q R S T U V W X Y Z

Futureheads - Robot tab

Tabbed by: Amy
Email: x_amzi_x@hotmail.co.uk

Intro
e|--------------------------------------------------------------------|
B|--------------------------------------------------------------------|
G|-------99----------------------99-----------------------------------|
D|-77----99----99----99----77----77----99----99-----------------------|
A|-77----77----99----99----77----77----99----99-----------------------|
E|-55----------77----77----55----------77----77-----------------------|

Chorus
e|-----------------------------------------|
B|-----------------------------------------|
G|-1---------------------------------------|
D|-2---------------------------------------|
A|-2---------------------------------------|
E|-----------------------------------------|
  I am a robot, living like a robot,
  Talk like a robot in the habititting way,

Verse (a)
e|---------------------------|------------------------------------|
B|-----------------------(x2)|------------------------------------|
G|--------99-----------------|---------99-------------------1-----|
D|-77-----99-----99-----99---|--77-----99-----99-----99-----2-----|
A|-77-----77-----99-----99---|--77-----77-----99-----99-----2-----|
E|-55------------77-----77---|--55------------77-----77-----------|
         Look up.sky.                  Do.you do.           gone.
         You can.me.

Verse (b)
e|-----------------------|---------------------------------|
B|------------------(x2)-|---------------------------------|
G|-7-----77--------------|---7-----77----------------------|
D|-7-----77-----7-7-7-7--|---7-----77-----7-7-7-7-----5----|
A|-5-----55-----7-7-7-7--|---5-----55-----7-7-7-7-----5----|
E|--------------5-5-5-5--|----------------5-5-5-5-----3----|
   The.         life span.   If.          together.   mind.

Bit after verse (1)
e|-----------------------------------------|
B|-----------------------------------------|
G|----------1-----7-9----5-----------------|
D|----------2-----7-7----5--5--------------|
A|----------2-----5-7----3--5--------------|
E|--------------------------3--------------|
  I have no mind, I have no mind

Bit after verse (2)
e|---------------------------------|--------------------------|
B|---------------------------------|--------------------------|
G|-9------5--------9------5--------|--3-----------------------|
D|-9-9----5--5-----9-9----5--5-----|--3---3-------------------|
A|-7-9----3--5-----7-9----3--5-----|--1---3-------------------|
E|---7-------3-------7-------3-----|------1-------------------|
   I have no mind, I have no mind,    why don't

Outro
e|---------------------------------------------------|
B|---------------------------------------------------|
G|-9------5--------3---------------------------------|
D|-9-9----5--5-----3---3-----------------------------|
A|-7-9----3--5-----1---3-----------------------------|
E|---7-------3---------1-----------------------------|
   I have no mind, why don't

End
e|----------------------------------|
B|----------------------------------|
G|-5--------------------------------|
D|-5----------5---------------------|
A|-3----------5---------------------|
E|------------3---------------------|

Running Order
  Intro
  Chorus
  Verse (a)
  Chorus
  Verse (a)
  Chorus
  Verse (b)
  Bit after verse (1)
  Verse (a)
  Chorus
  Verse (b) x2
  Bit after verse (2)
  Outro
  End
Tap to rate this tab
 
# A B C D E F G H I J K L M N O P Q R S T U V W X Y Z