Song name
# A B C D E F G H I J K L M N O P Q R S T U V W X Y Z

Gabrielle Aplin - Kids tab

Hey guys,
For anyone of you who saw the video of gabrielle aplin covering kids
(http://www.youtube.com/watch?v=wGn1zXLHwfM), I thought it was so beautiful and took a 
shot at tabbing how
she plays it. The chords she plays are Em7, Cmaj7, then some kind of G and D. This 
fingerpicking scheme is particularly what she does in the intro, but she basically plays the
same pattern throughout the song (but then without the hammer-on's and stuff).

Standard tuning
Capo 8th

e|---------------------|-----------------------|
B|--------0------------|-----------------------|
G|-----------------0---|-----------------------|
D|----0--------0-------|---0h2---2-----0h2---2-|
A|------1--------1-----|-3-----3-----3-----3---|
E|--0--------0---------|-----------------------|

e|---------------------|-----------------------|
B|---------------------|-----------------------|
G|--------0-------0----|--------0-------0------|
D|----2-------2--------|----4-------4----------|
A|------3-------3------|------5-------5--------|
E|--3-------3----------|--5-------5------------|
Tap to rate this tab
# A B C D E F G H I J K L M N O P Q R S T U V W X Y Z