Song name
# A B C D E F G H I J K L M N O P Q R S T U V W X Y Z

Gandalf Murphy And The Slambovian Circus Of Dreams - My Girl tab

Verse 1:

|---------------------------------|
|---------------------------------|
|--4--------------------9---------| (4x)
|--4---------4-6-4------9---------|
|--2---2-4/6---------7--7---------|
|---------------------------------|

Pre-Chorus:

|---------------------------------|
|-----5---------------------------|
|--4--6--9--11--------------------| (2x)
|--4--6--9--11--------------------|
|--2--4--7--9---------------------|
|---------------------------------|

Chorus:

|------|--0--|--2------| 
|------|--0--|--2------|
|--4---|--1--|--3------|
|--4---|--2--|--4------|
|--2---|--2--|--4------|
|------|--0--|--2------|

Verse 2:

|---------------------------------|
|---------------------------------|
|--4--------------------9---------| (4x)
|--4---------4-6-4------9---------|
|--2---2-4/6---------7--7---------|
|---------------------------------|

Pre-Chorus:
Chorus:

Verse3:

|---------------------------------|
|---------------------------------|
|--8--------------------11--------| (4x)
|--8---------6-8-6------11--------|
|--6---4-6/8---------9--9---------|
|---------------------------------|

Pre-Chorus:

|---------------------------------|
|-----7---------------------------|
|--6--8--11--13-------------------| (2x)
|--6--8--11--13-------------------|
|--4--6--9---11-------------------|
|---------------------------------|

2nd Chorus:

|------|--2--|--4------| 
|------|--2--|--4------|
|--6---|--3--|--5------|
|--6---|--4--|--6------|
|--4---|--4--|--6------|
|------|--2--|--4------|

sa ending, ulitin nyu na lang chords sa 2nd chorus.
more or less the same lang un..

paki rate na lang po.. first time ko mag submit ng tab d2..

from: Clifford Diaz
for Comments, email me at liford99@yahoo.com
"i dedicate this to monit garciano, na kababata ko!!
Wakokokoko!! ingatz na lang" 






Tap to rate this tab
# A B C D E F G H I J K L M N O P Q R S T U V W X Y Z