Song name
# A B C D E F G H I J K L M N O P Q R S T U V W X Y Z

Gandalf Murphy And The Slambovian Circus Of Dreams - Already Broken tab

Already Broken
By Gandalf Murphy and the Slambovian Circus of Dreams

Thanks alex, I based this off your tab
This is right, but i'm not totally sure about the last riff in the verse
Its pretty easy and fun to play

Intro:

    G(6)                Em
e|--------------------------------------------------|
B|--0-----0---0-----0---0-----0---0---0-------------|
G|------0---------0---------0-----------------------| 
D|----0-----2---0-----2---5-----5---5---5-----------|  x4
A|----------------------7---------7-----------------|
E|--3---------3-------------------------------------|

Verse:

    G(6)                Em
e|--------------------------------------------------|
B|--0-----0---0-----0---0-----0---0---0-------------| 
G|------0---------0---------0-----------------------| x3
D|----0-----2---0-----2---5-----5---5---5-----------|
A|----------------------7---------7-----------------|
E|--3---------3-------------------------------------|

    G                   B?                  A7sus4
e|------------------------------------------------------------|
B|--0-----0---0-----0-----------------------------------------| 
G|------0---------0-----0-----0---0-----0---0-----0---0-----0-| 
D|----0-----2---0-----2-----0---------0---------0---------0---|
A|------------------------9-----9---9-----9---7-----7---7----7|
E|--3---------3---------7---------7---------5---------5-------|

Chorus:
                        These are fills played during the chord on the left
                         |
G                        V
I 
         C         (B|-1p0—1p0-etc)
I don’t mind
         G
If you treat 
       C           (B|-1p0—1p0-etc)
Me unkind
           Em
Cause in a way     (D|–0h2-0h2-etc)
             C 
We’ve been blind   (B|-1p0—1p0-etc)
            G
So I don’t mind


The Solos are played over the Verse part
Alex has the other solo but this is solo at 1:29 with the accordion

Solo:
e|---------------------------------------------------------------|
B|*12*--------8-7-5--5-7-8--5-5--5-7-8---5-3--3-----5-3--3-------|
G|-----*12*-------------------------------------0----------0-----|
D|---------------------------------------------------------------|
A|---------------------------------------------------------------|
E|---------------------------------------------------------------|

e|---------------------------------------------------------------|
B|-8-7-5--5-7-8---5-5--5-7-8--10-10--10-8-8--8-7-7--7-5-5--------|
G|---------------------------------------------------------------|
D|---------------------------------------------------------------|
A|---------------------------------------------------------------|
E|---------------------------------------------------------------|

-Adam B
Questions to Atwbthe3rd@yahoo.com

Tap to rate this tab
# A B C D E F G H I J K L M N O P Q R S T U V W X Y Z