Song name
# A B C D E F G H I J K L M N O P Q R S T U V W X Y Z

George Thorogood - If You Dont Start Drinking And You Talk To Much tab

Here are the intro riffs for If you don't start drinkin' and You talk to much.


If you don't start drinkin'
e -8-8---10-8------|
b -----9-------9-9-|
g -----------------|
d -----------------|
a -----------------|
e -----------------|

You talk to much
e --------0---0-0-----|
b ----------3-----3-3-|
g ----0h1-------------|
d -0h2----------------|
a --------------------|
e --------------------|
Tap to rate this tab
# A B C D E F G H I J K L M N O P Q R S T U V W X Y Z