Song name
# A B C D E F G H I J K L M N O P Q R S T U V W X Y Z

George Thorogood - Treat Her Right tab

Treat Her Right by George Thorogood tabbed by egjackly

Verse
e -----------------|
b -----------------|
g -----------------|
d ---5----3-3-4-5--|
a -----5-----------|
E -3---------------| X4

e -----------------|
b -----------------|
g ---5-----3-3-4-5-|
d -----5-----------|
a -3---------------|
E -----------------| X2

e -----------------|
b -----------------|
g -----------------|
d ---5----3-3-4-5--|
a -----5-----------|
E -3---------------| X2

e -----------------|
b -----------------|
g ---7-----5-5-6-7-|
d -----7-----------|
a -5---------------|
E -----------------|

e -----------------|
b -----------------|
g ---5-----3-3-4-5-|
d -----5-----------|
a -3---------------|
E -----------------|

e -----------------|
b -----------------|
g -----------------|
d ---5----3-3-4-5--|
a -----5-----------|
E -3---------------|

Chorus

e ----------    ----------    ----------    ----------  ----------  --------|
b ----------    ----------    ----------    ----------  ----------  --------|
g ----------    ----------    ----------    ----------  ----------  --------|
d ----------    -5-5-3-5--    ----------    -7-7-5-7--  -5-5-3-5--  --------|
a -5-5-3-5--    -3-3-1-3--    -5-5-2-5--    -5-5-3-5--  -3-3-1-3--  -5-5-3-5|
E -3-3-1-3-- X4 ---------- X2 -3-3-1-3-- X2 ----------  ----------  -3-3-1-3|

e ------|
b ------|
g ------|
d ------|
a -3-5--|
E -1-3--|

Solo

3rd position blues scale
Tap to rate this tab
 
# A B C D E F G H I J K L M N O P Q R S T U V W X Y Z