Song name
# A B C D E F G H I J K L M N O P Q R S T U V W X Y Z

Get Cape Wear Cape Fly - I Spy tab

Get Cape. Wear Cape. Fly
I-Spy
Get Cape. Wear Cape. Fly (EP) 2006
Tuning: Standard, Capo 5th Fret.
Tabbed by Carlson2000

Intro
=====
---3---------3----------3-----------------------|
---3---------3----------3-----------------------|
------------------------------------------------| x2
--2---2--2------------2-----2---2-----0-----0h2-|
----------------2-2/3-----3---3-----------------|
-0--0--0---0----------------------2h3---3p2-----|

Verse
=====
---3---------3----------3---------3---------|
---3---------3----------3---------3---------|
--------------------------------------------|
--2---2--2------------2-----2---2-------0h2-|
----------------2-2/3-----3---3---3---2-----|
-0--0--0---0--------------------------------|

I Spy...

---3---------3----------3---------3-----|
---3---------3----------3---------3-----|
----------------------------------------|
--2---2--2------------2-----2---2-------|
----------------2-2/3-----3---3---3-----|
-0--0--0---0--------------------------2-|

that this song...

---3---------3----------3---------3---------|
---3---------3----------3---------3---------|
--------------------------------------------|
--2---2--2------------2-----2---2-----------|
----------------2-2/3-----3---3---3---2-2h3-|
-0--0--0---0--------------------------------|

---3---------3----------3---------3----|
---3---------3----------3---------3----|
---------------------------------------|
--2---2--2------------2-----2---2------|
----------------2-2/3-----3---3---3--3-|
-0--0--0---0---------------------------|

                                       it goes..
Pre-Chorus
==========
-----3----------5-----------7-----------7-|
-----3----------5-----------7-----------7-|
------------------------------------------| x4
---2----------4-----------5-----5---5-----|
-3------3-3/5-------5-5/7-----7---7---7---|
------------------------------------------|

Face, in the crowds.......

Then play

--3--     --3--|
--3--     --3--|
--0-- and --0--| x4
--2--     --2--|
--2--     --3--|
--0--     --0--|

(Em7)    (Cadd9)

 Em7                           Cadd9                              Em7
And I spy with my little eye, something that begins with 'I just',
                   Cadd9
I have just began to realise.
 Em7
Put on my favourite song,
   Cadd9
I Forgot this style instructs you to sing aloud
 Em7                              Cadd9
        Why don't you sing along?

It goes,

==========
Pre-Chorus (over these lyrics;)
==========
Face, in a crowd.
If you don't care then why are you singing out?
Face, in a crowd.
If you don't care then why are you singing out?


And I can hear you singing,
 G              D            Cadd9
La la la la la la la la la laaa,
You're singing,
 G     D        Cadd9
La la la la la laa.

======
Bridge
======
-----3-------------3------------3---------3-----|
-----3-------------3------------3---------3-----|
------------------------------------------------|
-----------------0-----0------2-----2---2-----2-|
---2-----2--------------------------------------|
-3-----3-------2-----2------0-----0---0-----0---|

-----2/3----------2/3---------3-------------3-----|
-----3-3----------3-3---------3-------------3-----|
---2-------2----2-------2-------------------------|
-0-------0----0-------0-----2-----2-------4-----4-|
--------------------------3-----3-----3/5-----5---|
--------------------------------------------------|

It doesn't matter that this song has a simple tune,
Even though it's not what I'm supposed to do,

 G              D            Cadd9
What I'm supposed to do,
 G              D            Cadd9
What I'm supposed to doooo,
 G              D            Cadd9
What I'm supposed to doooo...


-----3-------------3------------3---------3-----|
-----3-------------3------------3---------3-----|
------------------------------------------------|
-----------------0-----0------2-----2---2-----2-|
---2-----2--------------------------------------|
-3-----3-------2-----2------0-----0---0-----0---|

Now it doesn't matter that this song has a simple tune,
Even though it's not what I'm supposed to do,
What I'm supposed to do.

-----2/3----------2/3---------3-----------3------------3-----------3-|
-----3-3----------3-3---------3-----------3------------3-----------3-|
---2-------2----2-------2--------------------------------------------|
-0-------0----0-------0-----2-----2---2--------2---2-------2---2-----|
--------------------------3-----3---3---3----3---3---3---3---3---3---|
---------------------------------------------------------------------|
                                                                    And can you hear me singing?
-----3-------------3------------3---------3---|
-----3-------------3------------3---------3---|
----------------------------------------------|
-----------------0-----0------2-----2---2-----| x2
---2-----2------------------3-----3---3-----3-|
-3-----3-------2-----2------------------------|

La la la la la la la la la laaa,
La la la la la la la la la laaa,

-----3-------------3------------3---------3-----|
-----3-------------3------------3---------3-----|
------------------------------------------------|
-----------------0-----0------2-----2---2-----2-|
---2-----2--------------------------------------|
-3-----3-------2-----2------0-----0---0-----0---|

-----2/3----------2/3---------3-------------3----------|
-----3-3----------3-3---------3-------------3----------|
---2-------2----2-------2------------------------------|
-0-------0----0-------0-----2-----2-------4-----4------|
--------------------------3-----3-----3/5-----5---5----|
----------------------------------------------------3~-|
Now it doesn't matter that this song has a simple tune,
Even though it's not what I'm supposed to do,
What I'm supposed to do.
Tap to rate this tab
 
# A B C D E F G H I J K L M N O P Q R S T U V W X Y Z