Song name
# A B C D E F G H I J K L M N O P Q R S T U V W X Y Z

Get Cape Wear Cape Fly - Moving Forward tab

Song: Moving Forward
Artist: Get Cape. Wear Cape. Fly
Album: Searching For the Hows and Whys

Capo 8th fret


Intro/Verse 1
E|---------------------------------------------------------|
B|------1--------------1--------------1-----1-----1-----1--|
G|----------0--------------0--------0-----0-----0-----0----|
D|----2---------2----2---------2--3-----2-----0------------|
A|--3-----3---3----3-----3---3----------------------3------|
E|---------------------------------------------------------|

E|-----------------------------------------------------------|
B|------1--------------1--------------1-----1-----1-------1--|
G|----------0--------------0--------0-----0-----0-------0----|
D|----0---------0----0---------0--3-----2-----0-----0h2------|
A|--2-----2---2----2-----2---2-------------------------------|
E|-----------------------------------------------------------|

E|---------------------------------------------------------|
B|------1--------------1--------------1-----1-----1-----1--|
G|----------0--------------0--------0-----0-----0-----0----|
D|----2---------2----2---------2--3-----2-----0-----2------|
A|--0-----0---0----0-----0---0-----------------------------|
E|---------------------------------------------------------|

E|--------------------------------------------------------------|
B|------1--------------1--------------1--------------1----------|
G|----------0--------------0--------------0--------------0------|
D|----2---------2----2---------2----2---------2----2---------2--|
A|--3-----3---3----3-----3---3----3-----3---3----3-----3---3----|
E|--------------------------------------------------------------|


Chorus 1
E|---------------------------------------------------------|
B|------1-------------1-------------1-------------1-----1--|
G|----------0-------------0-------------0------------------|
D|----0---------0---0---------0---0---------0---0-----0----|
A|---------------------------------------------------------|
E|--1-----1---1---1-----1---1---1-----1---1---1-----0------|

E|--------------------------------------------------------------|
B|------1--------------1--------------1--------------1----------|
G|----------0--------------0--------------0--------------0------|
D|----2---------2----2---------2----2---------2----2---------2--|
A|--0-----0---0----0-----0---0----------------------------------|
E|--------------------------------3-----3---3----3-----3---3----|

E|-----------------------------------------------------------|
B|------1-------------1-------------1-------------1----------|
G|----------0-------------0-------------0-------------0------|
D|----0---------0---0---------0---0---------0---0---------0--|
A|-----------------------------------------------------------|
E|--1-----1---1---1-----1---1---1-----1---1---0-----0---0----|






E|--------------------------------------|
B|--------1~----------1~----------------|
G|--------0~----------0~----------------|
D|--2~----------------------------------|
A|--0~----------2~----------3~----------|
E|--------------3~----------1~----------|


Interlude/Verse 2
E|---------------------------------------------------------|
B|------1--------------1--------------1-----1-----1-----1--|
G|----------0--------------0--------0-----0-----0-----0----|
D|----2---------2----2---------2--3-----2-----0------------|
A|--3-----3---3----3-----3---3----------------------3------|
E|---------------------------------------------------------|

E|-----------------------------------------------------------|
B|------1--------------1--------------1-----1-----1-------1--|
G|----------0--------------0--------0-----0-----0-------0----|
D|----0---------0----0---------0--3-----2-----0-----0h2------|
A|--2-----2---2----2-----2---2-------------------------------|
E|-----------------------------------------------------------|

E|---------------------------------------------------------|
B|------1--------------1--------------1-----1-----1-----1--|
G|----------0--------------0--------0-----0-----0-----0----|
D|----2---------2----2---------2--3-----2-----0-----2------|
A|--0-----0---0----0-----0---0-----------------------------|
E|---------------------------------------------------------|

E|--------------------------------------------------------------|
B|------1--------------1--------------1--------------1----------|
G|----------0--------------0--------------0--------------0------|
D|----2---------2----2---------2----2---------2----2---------2--|
A|--3-----3---3----3-----3---3----3-----3---3----3-----3---3----|
E|--------------------------------------------------------------|

Second guitar (with capo on 8th) plays this over the top
E|-----------0--------|
B|--3--1--------1-----|
G|--------0--------0--|
D|--------------------|
A|--------------------|
E|--------------------|


Chorus 2
E|---------------------------------------------------------|
B|------1-------------1-------------1-------------1-----1--|
G|----------0-------------0-------------0------------------|
D|----0---------0---0---------0---0---------0---0-----0----|
A|---------------------------------------------------------|
E|--1-----1---1---1-----1---1---1-----1---1---1-----0------|

E|--------------------------------------------------------------|
B|------1--------------1--------------1--------------1----------|
G|----------0--------------0--------------0--------------0------|
D|----2---------2----2---------2----2---------2----2---------2--|
A|--0-----0---0----0-----0---0----------------------------------|
E|--------------------------------3-----3---3----3-----3---3----|




E|-----------------------------------------------------------|
B|------1-------------1-------------1-------------1----------|
G|----------0-------------0-------------0-------------0------|
D|----0---------0---0---------0---0---------0---0---------0--|
A|-----------------------------------------------------------|
E|--1-----1---1---1-----1---1---1-----1---1---0-----0---0----|

E|--------------------------------------|
B|--------1~----------1~----------------|
G|--------0~----------0~----------------|
D|--2~----------------------------------|
A|--0~----------2~----------3~----------|
E|--------------3~----------1~----------|


Bridge
E|--------------------------------------------------------------|
B|------1--------------1--------------1--------------1----------|
G|----------0--------------0--------------0--------------0------|
D|----2---------2----2---------2----2---------2----2---------2--|
A|--0-----0---0----0-----0---0----------------------------------|
E|--------------------------------3-----3---3----3-----3---3----|

E|-----------------------------------------------------------|
B|------1-------------1-------------1-------------1----------|
G|----------0-------------0-------------0-------------0------|
D|----0---------0---0---------0---0---------0---0---------0--|
A|-----------------------------------------------------------|
E|--1-----1---1---1-----1---1---1-----1---1---1-----1---1----|X2


Chorus 3/Outro
E|---------------------------------------------------------|
B|------1-------------1-------------1-------------1-----1--|
G|----------0-------------0-------------0------------------|
D|----0---------0---0---------0---0---------0---0-----0----|
A|---------------------------------------------------------|
E|--1-----1---1---1-----1---1---1-----1---1---1-----0------|

E|--------------------------------------------------------------|
B|------1--------------1--------------1--------------1----------|
G|----------0--------------0--------------0--------------0------|
D|----2---------2----2---------2----2---------2----2---------2--|
A|--0-----0---0----0-----0---0----------------------------------|
E|--------------------------------3-----3---3----3-----3---3----|

E|-----------------------------------------------------------|
B|------1-------------1-------------1-------------1----------|
G|----------0-------------0-------------0-------------0------|
D|----0---------0---0---------0---0---------0---0---------0--|
A|-----------------------------------------------------------|
E|--1-----1---1---1-----1---1---1-----1---1---0-----0---0----|

E|--------------------------------------|
B|--------1~----------1~----------------|
G|--------0~----------0~----------------|
D|--2~----------------------------------|
A|--0~----------2~----------3~----------|
E|--------------3~----------1~----------|





Second guitar (with capo on 8th) plays this over the top
E|--5---5--3---3--5---5--3---3--|
B|------------------------------|
G|------------------------------|
D|------------------------------|
A|------------------------------|
E|------------------------------|
Tap to rate this tab
# A B C D E F G H I J K L M N O P Q R S T U V W X Y Z