Song name
# A B C D E F G H I J K L M N O P Q R S T U V W X Y Z

Gh Matos Rodriguez - La Cumparsita tab

Famous Tango song
La Cumparsita
(Argentina)


E |-5---3---1-------------------------------------------|
B |--------------------3-3-3---------3-3-3--------------|
G |-------------1-1-1--1-1-1--1-1-1--1-1-1--------------|
D |-------------2-2-2--2-2-2--2-2-2--2-2-2--2-2-3-2-1-2-|
A |-------------2-2-2--2-2-2--2-2-2--2-2-2--------------|
E |-5---3---1-------------------------------------------|


E |--------3-3-3---------3-3-3--------------|
B |-1-1-1--1-1-1--1-1-1--1-1-1--------------|
G |-2-2-2--2-2-2--2-2-2--2-2-2--------------|
D |-2-2-2--2-2-2--2-2-2--2-2-2--2-2-3-2-1-2-|
A |-----------------------------------------|
E |-----------------------------------------|

E |-----------------------------------------|
B |--------3-3-3---------3-3-3--------------|
G |-1-1-1--1-1-1--1-1-1--1-1-1--------------|
D |-2-2-2--2-2-2--2-2-2--2-2-2--2-2-3-2-1-2-|
A |-2-2-2--2-2-2--2-2-2--2-2-2--------------|
E |-----------------------------------------|

E |--------3-3-3---------3-3-3----------------|
B |-1-1-1--1-1-1--1-1-1--1-1-1----------------|
G |-2-2-2--2-2-2--2-2-2--2-2-2----------------|
D |-2-2-2--2-2-2--2-2-2--2-2-2--2-2-3-2-1-2---|
A |-------------------------------------------|
E |-------------------------------------------|

E |1---0---1--1-0-0-|-----------------|---------------------------------|
B |3---3---3--3-3-3-|1---0---1--1-0-1-|---------------------------------|
G |2---2---2--2-2-2-|2---2---2--2-2-2-|1---0---1--1-0-1-----------------|
D |-----------------|2---2---2--2-2-2-|2---2---2--2-2-2--2-2-3-2-1------|
A |-----------------|-----------------|2---2---2--2-2-2------------3-2-0|
E |-----------------|-----------------|---------------------------------|

ALGUNA DUDA O SUGERENCIA A juanjose@etapa.com.ec
Tap to rate this tab
# A B C D E F G H I J K L M N O P Q R S T U V W X Y Z