Song name
# A B C D E F G H I J K L M N O P Q R S T U V W X Y Z

Giant Drag - Wicked Game tab

-------------------------------------------------------------------------------
			     WICKED GAME - Giant Drag
-------------------------------------------------------------------------------
Tabbed by: thomasgrant
Email: grant{dot}tom{at}gmail{dot}com

Tuning: Standard

Here is Giant Drag's cover of Chris Issac's Wicked Game. This was transcribed by ear and
no proof that this is/is not performed the same way that Chris Issac plays it. After
scrutiny, I believe that I have it quite accurate. In regards to the lyrics, they have 
modified from the original version. The omitted lyrics were kept in parenthesis.


Intro, Slight distortion

Part 1
e--------------|-------------------|-----------|
B--------------|-------------------|-----------|
G----7~-7s-4---|----7~---9-7-6-4~--|-----------|
D--4-----------|--4----------------|----7---6--|
A--------------|-------------------|--9---7----|
E--------------|-------------------|-----------|

Part 2                                     x2
e------------------------------------------||
B------------------------------------------||
G--11-----9-------------------------------*||
D-----12----12--11-9--9-9----7-6--6-7-9~--*||
A--------------------------7---------------||
E------------------------------------------||


* Verses use distortion and slight delay

Verse 1
  Bm7                       Am                       Em7
  The world was on fire and no one could save me but you
  Bm7                           Am                  Em7
  It's strange what desire will make foolish people do
  Bm7                  Am                     Em7
  I never dreamed that I'd meet somebody like you
  Bm7                  Am                     Em7
  I never dreamed that I'd love somebody (like you)


Chorus
  Bm7   Am                     Em7
  And, I don't want to fall in love
  Bm7  Am                     E7
  No, I don't want to fall in love


{ Intro, Part 2 (x1) }


Verse 2
  Bm7           Am           Em7
  What a wicked game to play, to make me feel this way
  Bm7           Am          Em7
  What a wicked thing to do, to let me dream of you
  Bm7           Am           Em7
  What a wicked thing to say, you never felt this way
  Bm7           Am          Em7
  What a wicked thing to do, to make me dream of you


Chorus
  Bm7   Am                     Em7
  And, I don't want to fall in love
  Bm7  Am                     E7
  No, I don't want to fall in love


{ 8 bar solo }


Verse 3
  Bm7                       Am                Em7
  The world was on fire and no one could save me (but you)
  Bm                        Am                Em7
  Ain't it strange what desire (will make foolish people do)
  Bm7                      Am                 Em7
  I never dreamed that I'd love somebody like you
  Bm7                      Am        Em7
  I never dreamed that I'd loose somebody (like you no)


Chorus
  Bm7   Am                     Em7
  And, I don't want to fall in love
  Bm7  Am                     E7
  No, I don't want to fall in love
  Bm7  Am                     E7
  No, I (don't want to fall in love)
  Bm7  Am                 E7
  I don't want to fall in love
  Bm7    Am       Em7
  Nobody loves no one
Tap to rate this tab
 
# A B C D E F G H I J K L M N O P Q R S T U V W X Y Z