Song name
# A B C D E F G H I J K L M N O P Q R S T U V W X Y Z

Gioacchino Rossini - El Barbero De Sevilla tab

Hola a todos este es el primer Tab que subo, es tan solo la parte mas conocida de la 
espero y les guste. si tienen algun comentario me escriben.

Hi everybody, this is the first time i submit a tab, i hope you like. Any commentary is welcome.

wickedangel911@hotmail.com

||------------------------------------------------------------------------------------------------|
||--12-12-12-13-p-12---12-12-12-13-p-12--12-12-12-13-p-12--10-12-p-10--8-10-p-8-5-----------------|
||------------------------------------------------------------------------------------------------|
||------------------------------------------------------------------------------------------------|
||------------------------------------------------------------------------------------------------|
||------------------------------------------------------------------------------------------------|


|--------------------5-7-5-----8-7-5-------------------------------------------------------------||
|--8-8-8-7-5--8-7-5--------7---------8-7-5----------5----------5-------5-------7-----------------||
|------------------------------------------7-5-4-4----7-5-4-4----7-5-4---7-5-4---5-4-------------||
|------------------------------------------------------------------------------------------------||
|------------------------------------------------------------------------------------------------||
|------------------------------------------------------------------------------------------------||
Tap to rate this tab
# A B C D E F G H I J K L M N O P Q R S T U V W X Y Z