Guitaretab - guitar tabs
Song name
# A B C D E F G H I J K L M N O P Q R S T U V W X Y Z

Gioacchino Rossini - William Tell Overture tab

-------------------------------------------------------------------------------
William Tell Overture - Gioachino Rossini
-------------------------------------------------------------------------------
Tabbed by: Darrell
Email: no1flyhalf@yahoo.com

Tuning: Standard

Intro
e|---3--5---3-7----3-5----3-7--3-5/7-12-10-3-7-5h7p5h7p5h7p5h7p5h7p5---------|
B|--------3------3-----3------3----------------------------------------------|
G|---------------------------------------------------------------------------|
D|---------------------------------------------------------------------------|
A|---------------------------------------------------------------------------|
E|---------------------------------------------------------------------------|

e|---5-7---5-7---5-7---5-7----3-5/7-7/12-11h12p11h12p11h12p11h12p11h12p11----|
B|-------5-----5-----5-----5-------------------------------------------------|
G|---------------------------------------------------------------------------|
D|---------------------------------------------------------------------------|
A|---------------------------------------------------------------------------|
E|---------------------------------------------------------------------------|

e|--3-5---3-7---3-10-7-5---5-3--15-10-7---5-3~~~~~~~~~~~~~~~~~~--------------|
B|------3-----3----------3--------------3------------------------------------|
G|---------------------------------------------------------------------------|
D|---------------------------------------------------------------------------|
A|---------------------------------------------------------------------------|
E|---------------------------------------------------------------------------|

Beginning
e|---------------------------------------12---------------12-----------------|
B|-/12--12-12-12--12-12-12-9---9-12-9-12---12-9--9-12-9-12--12--12-12-12—----|
G|---------------------------9------------------9----------------------------|
D|---------------------------------------------------------------------------|
A|---------------------------------------------------------------------------|
E|---------------------------------------------------------------------------|

e|---------------------------------------------------------------------------|
B|--12-12-12--12-12-12--12-12-12-12-12-12-12-12-12-12-12-12-12-12-12---------|
G|---------------------------------------------------------------------------|
D|---------------------------------------------------------------------------|
A|---------------------------------------------------------------------------|
E|---------------------------------------------------------------------------|

e|---------------------------------------------------------------------------|
B|--12-12-12-12-12-12-12-12-12-12-12-12~~~~~~~~~~~~~~~~~~~~~~~~~~~~~~--------|
G|---------------------------------------------------------------------------|
D|---------------------------------------------------------------------------|
A|---------------------------------------------------------------------------|
E|---------------------------------------------------------------------------|

Other Beginning
e|---------------------------------------------------------------------------|
B|---------------------------------------------------------------------------|
G|------------------------1------------------1-------------------------------|
D|--------------------2-4------------------2--4-1----------------------------|
A|--2-2-2--2-2-2—-2-2--------2-2-2--2-2-2---------2--------------------------|
E|---------------------------------------------------------------------------|
[ Tab from: http://www.guitaretab.com/g/gioacchino-rossini/86616.html ]
e|---------------------------------------------------------------------------|
B|---------------------------------------------------------------------------|
G|------------------------1---1-4~~-1-----1----------------------------------|
D|--------------------2-4---2---------4-2---2--------------------------------|
A|--2-2-2--2-2-2--2-2--------------------------------------------------------|
E|---------------------------------------------------------------------------|

e|--------------------------4--------------------4---------------------------|
B|----------------------5-7--------------------5---7-4-----------------------|
G|----4-4-4--4-4-4--4-4---------4-4-4--4-4-4-----------4---------------------|
D|---------------------------------------------------------------------------|
A|---------------------------------------------------------------------------|
E|---------------------------------------------------------------------------|

e|--------------------------4---4-7~~~~~4-----4------------------------------|
B|----------------------5-7---5-----------7-5---5----------------------------|
G|----4-4-4--4-4-4--4-4------------------------------------------------------|
D|---------------------------------------------------------------------------|
A|---------------------------------------------------------------------------|
E|---------------------------------------------------------------------------|

Bridge 1
e|---------------------------------------------------------------------------|
B|---------------------------------------------------------------------------|
G|-----------------------6---6---6-------------------------------------------|
D|---6-6-6--6-6-6--6-6-6---6---6---6-4---------------------------------------|
A|-------------------------------------7-6-4---------------------------------|
E|---------------------------------------------------------------------------|

e|---------------------------------------------------------------------------|
B|---------------------------------------------------------------------------|
G|-----------------------6--6--6-4-3-4-3-4-----------------------------------|
D|---6-6-6--6-6-6--6-6-6--6--6-----------------------------------------------|
A|---------------------------------------------------------------------------|
E|---------------------------------------------------------------------------|

e|---------------------------------------------------------------------------|
B|---------------------------------------------------------------------------|
G|-----------------------6---6---6-------------------------------------------|
D|---6-6-6--6-6-6--6-6-6---6---6---6-4---------------------------------------|
A|-------------------------------------7-6-4---------------------------------|
E|---------------------------------------------------------------------------|

e|---------------------------------------------------------------------------|
B|---------------------------------------------------------------------------|
G|----------------------6--6-6-4-3-4-3-4p3h4p3h(goes on as long as needed)4~~|
D|--6-6-6--6-6-6--6-6-6--6--6------------------------------------------------|
A|---------------------------------------------------------------------------|
E|---------------------------------------------------------------------------|

Order:

Intro
Beginning
Other Beginning
Bridge 1
Other Beginning
Bridge 2
other stuff

| /  slide up
| \  slide down
| h  hammer-on
| p  pull-off
| ~  vibrato
| +  harmonic
| x  Mute note

I haven’t figured out the 2nd bridge or other stuff, but play these parts well and fast 
it sounds good.

===============================================================================
Related for William Tell Overture tab
William Tell Overture chords by Gioacchino Rossini