Song name
# A B C D E F G H I J K L M N O P Q R S T U V W X Y Z

Girls Aloud - Love Machine tab

Title: Love Machine (Rock)
Artist: Girls Aloud 

Instrument: 6 String Guitar

Tabbed by: Will Goodselll (blindkreaper@btinternet.com)

Tuning: Standard (E A D G B E)



ok i heard the artic monkeys version of this song and i think its great.
i listend to the song and decided to do a rock version and here it is.

Intro and main riff
E|---------------------------------------------------------||
B|---------------------------------------------------------||
G|----------------------3333-5555--------------------------||
D|-----5-333-2-0--------3333-5555--------------------------||
A|----------------------1111-3333--------------------------||
E|---3-----------x3----------------------------------------||

verse
E|---------------------------------------------------------||
B|---------------------------------------------------------||
G|---------------------------------------------------------||
D|----55555555-----8888--10101010--------------------------||
A|----55555555-----8888--10101010--------------------------||
E|----33333333-----6666--8-8-8-8---------------------------||
Listen for strum pattern or you can play as is sounds good 
either way

Bridgey thing
E|---------------------------------------------------------||
B|---------------------------------------------------------||
G|---------------------------------------------------------||
D|----8~---------------10~-----------8~----------10~----12~||
A|----8~---------------10~-----------8~----------10~----12~||
E|----6~---------------8-~-----------6~----------8-~----10~||

its quite simple the bridge bit is before the chorus.

Any comments e-mail me at blindkreaper@btinternet.com.
all the best
Tap to rate this tab
# A B C D E F G H I J K L M N O P Q R S T U V W X Y Z