Song name
# A B C D E F G H I J K L M N O P Q R S T U V W X Y Z

Girlschool - Cmon tab

any problems, email me at coltacola@hotmail.com
it's not the only way to play the intro, but i thought this way was easier, so whatever 
for you i guess

e|-------------------------------------------------------------------------|
B|-------------------------------------------------------------------------|
G|-------------------------------------------------------------------------|
D|--------9-7-6-----------------------7-5-4---------------------------9-7-6|
A|--7-7-7---------------6h7-6h7-5-5-5-----------------4h5--4h5--7-7-7------|
E|--------------7-7-7-7---------------------5-5-5-5------------------------|

e|-------------------------------------------------------------------------|
B|-------------------------------------------------------------------------|
G|-------------------------------------------------------------------------|
D|-----------------------7-5-4--------------------9-let ring--9-x-9-9-9-9--|
A|---------6h7-6h7-5-5-5----------------4h5-4h5---7-let ring--7-x-7-7-7-7--|
E|-7-7-7-7---------------------5-5-5-5-------------------------------------|


Verse:
e|-------------------------------------------------------------------------|
B|-------------------------------------------------------------------------|
G|-------------------------------------------------------------------------|
D|-9-x-x-x-x-x-x-x-x-x-x-9-------------------------------------------------|
A|-7-x-x-x-x-x-x-x-x-x-x-7-9-x-x-x-x-x-x-9-x-9-9-9---11-x-x-x-x-x-x-x-x-11-|
E|-------------------------7-x-x-x-x-x-x-7-x-7-7-7---9--x-x-x-x-x-x-x-x-9--|

1.)Next week came so suddenly, I tried to see the ways,  That    I     have
2.)I tried to tell you everything, I guess time wasn't right, Now it is too

e|-----------------------|
B|-----------------------|
G|-----------------------| Play through 2 times
D|-----------------------|
A|-7x-7-7-7-7-9x-9-9-9-9-|
E|-5x-5-5-5-5-7x-7-7-7-7-|

   changed_____________.
   late________________.


CHORUS:
e|-------------------------------------------------------------------------|
B|-------------------------------------------------------------------------|
G|-------------------------------------------------------------------------|
D|-9-9-9-9-9-9-9-9-9-9-9-9-9-----------------------------------------------|
A|-7-7-7-7-7-7-7-7-7-7-7-7-7-9-9-9-9-9-9-9-9-9-9-9-9---12-12-12-12-12-12-12|
E|---------------------------7-7-7-7-7-7-7-7-7-7-7-7---10-10-10-10-10-10-10|

 Come on come on, it's not what I said____________,   Believe believe what I

e|----------------------| Now this parts kinda cool, the first time they
B|----------------------| play the chorus, it's like this, but the second
G|----------------------| time, they play through it twice. so just play it
D|----------------------| twice and find the lyrics.
A|--7-7-7-7-7-9-9-9-9-9-|
E|--5-5-5-5-5-7-7-7-7-7-|

   Meant_______________

Verse II:
e|-------------------------------------------------------------------------|
B|-------------------------------------------------------------------------|
G|-------------------------------------------------------------------------|
D|-9-x-x-x-x-x-x-x-x-x-x-9-------------------------------------------------|
A|-7-x-x-x-x-x-x-x-x-x-x-7-9-x-x-x-x-x-x-9-x-9-9-9---11-x-x-x-x-x-x-x-x-11-|
E|-------------------------7-x-x-x-x-x-x-7-x-7-7-7---9--x-x-x-x-x-x-x-x-9--|

1.)All my friends have come and gone, it's like my past erased, and traveled
2.)I'm logically all confused, and turning to you was,   my       best sol-

e|-----------------------|
B|-----------------------|
G|-----------------------| Play through 2 times
D|-----------------------|
A|-7x-7-7-7-7-9x-9-9-9-9-|
E|-5x-5-5-5-5-7x-7-7-7-7-|

   into space_____________.
   ution________________.

CHORUS:
e|-------------------------------------------------------------------------|
B|-------------------------------------------------------------------------|
G|-------------------------------------------------------------------------|
D|-9-9-9-9-9-9-9-9-9-9-9-9-9-----------------------------------------------|
A|-7-7-7-7-7-7-7-7-7-7-7-7-7-9-9-9-9-9-9-9-9-9-9-9-9---12-12-12-12-12-12-12|
E|---------------------------7-7-7-7-7-7-7-7-7-7-7-7---10-10-10-10-10-10-10|

1.)Come on come on, it's not what I said____________,   Believe believe what
2.)Ease up ease up, and life will get better________,   Enjoy enjoy it's all

e|----------------------|
B|----------------------|
G|----------------------| This time play through it twice
D|----------------------|
A|--7-7-7-7-7-9-9-9-9-9-|
E|--5-5-5-5-5-7-7-7-7-7-|

   I meant_______________
   There_________________

Bridge:(let 'em ring)
e|-------------------------------------------------------------------------|
B|-------------------------------------------------------------------------|
G|-------------------------------------------------------------------------|
D|-------------------------------------------------------------------------|
A|-11---------9-----------------7-------------------------11------9--------|
E|-9----------7-----------------5-------------------------9-------7--------|

   Today I've come to choose my ways, i've seen it all be-fore, I thought it

e|-------------------------------------------------------------------------|
B|-------------------------------------------------------------------------|
G|-------------------------------------------------------------------------|
D|-------------------------------------------------------------------------|
A|---------7-------------------------11----9-------------7-----------------|
E|---------5-------------------------9-----7-------------5-----------------|

    wasn't so, the truth will always hurt, even when its not intended to be

e|-------------------------------------------------------------------------|
B|-------------------------------------------------------------------------|
G|-------------------------------------------------------------------------|
D|------------9--x-x-x-x-x-x-x-x-x-x-x-x-x-x-x-x-x-x-x---------------------|
A|--9---------7--x-x-x-x-x-x-x-x-x-x-x-x-x-x-x-x-x-x-x---------------------|
E|--7----------------------------------------------------------------------|

    that way, that way_________       ONE TWO BETTY GO!!!

Solo:
e|-------------------------------------------------------------------------|
B|-------------------------------------------------------------------------|
G|-------------------------------------------------------------------------|
D|---------------6-6-6-7-7-7-9---------------------------------------------|
A|-7-7-7-7-7-7-7-------------------------------6-6-6-7-6-------------------|
E|-----------------------------7-7-7-7-7-7-7-7-----------9-7-10-10-10-10-10|

e|-------------------------------------------------------------------------|
B|-------------------------------------------------------------------------|
G|-------------------------------------------------------------------------|
D|------------------------------------------------------------9------------|
A|-------------9-9-9-10-10-10-12-----7-----7-------9-7-6---6--7------------|
E|-10-10-10-10-------------------5-5---5-5---7-7-7-------9-----------------|


CHORUS:
e|-------------------------------------------------------------------------|
B|-------------------------------------------------------------------------|
G|-------------------------------------------------------------------------|
D|-9-let ring--------------------------------------------------------------|
A|-7-let ring----------------9-let ring----------------12-let ring---------|
E|---------------------------7-let ring----------------10-let ring---------|

1.)Come on come on, it's not what I said____________,   Believe believe what
2.)Ease up ease up, and life will get better________,   Enjoy enjoy it's all

e|----------------------|
B|----------------------|
G|----------------------| This time play through it twice
D|----------------------|
A|--7-7-7-7-7-9-9-9-9-9-|
E|--5-5-5-5-5-7-7-7-7-7-|

   I meant_______________
   There_________________

CHORUS:
e|-------------------------------------------------------------------------|
B|-------------------------------------------------------------------------|
G|-------------------------------------------------------------------------|
D|-9-9-9-9-9-9-9-9-9-9-9-9-9-----------------------------------------------|
A|-7-7-7-7-7-7-7-7-7-7-7-7-7-9-9-9-9-9-9-9-9-9-9-9-9---12-12-12-12-12-12-12|
E|---------------------------7-7-7-7-7-7-7-7-7-7-7-7---10-10-10-10-10-10-10|

1.)Come on come on, it's not what I said____________,   Believe believe what
2.)Ease up ease up, and life will get better________,   Enjoy enjoy it's all

e|----------------------|
B|----------------------|
G|----------------------| This time play through it twice
D|----------------------|
A|--7-7-7-7-7-9-9-9-9-9-|
E|--5-5-5-5-5-7-7-7-7-7-|

   I meant_______________
   There_________________

Then after this, they play the same thing with different lyrics and fade themselves 
existence. This is a fun song to play, and it's not too hard. Good Luck =)
P.S. I really hope the editor people aren't deuches this time and actually let this 
It's not like anyone else even did the whole song.
Tap to rate this tab
# A B C D E F G H I J K L M N O P Q R S T U V W X Y Z