Gits - Whirlwind tab

I don't think this is 100% correct, but I thought I would submit the work in progress so 
could get some feedback and help.  I watched the Youtube video to see that the 
Joe Spleen, was playing in the first position the whole time.  So here goes . . .

"Whirlwind" - The Gits

Em                                 Bm

|----------------------------------------------------------------|
|----0----0----0----0---------------1----1----1----1-------------|
|------------------------0--------------------------------0------|
|----------------------------------------------------------------|
|----------------------------------2----2----2----2--------------|
|--0----0----0----0----------------------------------------------|

C                                       D

|----------------------------------------------------------------|
|-----1----1----1----1---------------3----3----3----3------------|
|-------------------------0--------------------------------2-----|
|----------------------------------0----0----0----0--------------|
|--3----3----3----3----------------------------------------------|
|----------------------------------------------------------------|
Tap to rate this tab
 
# A B C D E F G H I J K L M N O P Q R S T U V W X Y Z