Song name
# A B C D E F G H I J K L M N O P Q R S T U V W X Y Z

Gits - Second Skin tab

Verse
When the song really kicks in the chords directly below are repeated
only at a faster rate. Just Listen to the songe for strumming pattern.
|------------------------------------------------------------------|
|------------------------------------------------------------------|
|--------10---7----------------------------------------------------|
|----7---10---7----5-----------------------------------------------|
|----7---8----5----5-----------------------------------------------|
|----5-------------3-----------------------------------------------|



Bridge
This kicks in after Mia says " . . . something I can't break free of!"
|--------------------------------------------------------------------
|--------------------------------------------------------------------
|-------------------------------------10--12-------------------------
|-----5---7--10---7--10---5---7--10---10--12-------------------------
|-----5---7--10---7--10---5---7--10---8---10-------------------------
|-----3-/-5--8----5--8--- 3-/-5--8-----------------------------------
And Thats all I got so, ifin ya want more just e-mail me.
Tap to rate this tab
# A B C D E F G H I J K L M N O P Q R S T U V W X Y Z