Song name
# A B C D E F G H I J K L M N O P Q R S T U V W X Y Z

Glee - Forever Young tab

Capo on 3

Chords:

  Asus2        Dsus2         Bm (sus4)           F#m7 (sus4)
---0----   ---0----   ----0------   -------0------|
---0----   ---3----   ----0------   -------0------|
---2----   ---2----   ----3------   -------2------|
---2----   ---0----   ----0------   -------4------|
---0----   ---0----   ----3------   --------------|
--------   --------   -----------   --------------|



Play around with this picking pattern:

       Asus2                                  Dsus2                                    ...
-------0------------------------0----------------|
-----------0------------------3-----3------------|
-----2-------2--------------2---------2----------|
---2-----------2----------0-------------0--------|
-0----------------------0------------------------|
-------------------------------------------------|

I won't include the "sus" but play each of these as a suspended chord as an arpeggio

Intro:  Asus2 - Dsus2 - Asus2 - Asus2  (x2)

        A                          D              A                             
May the good Lord be with you down every road you roam
        A                          D                             A
And may sunshine and happiness surround you when you're far from home
            A                 D             A                        
And may you grow to be proud, dignified and true
    A                 D                  A
And do unto others as you'd have done to you
      Bm            D               F#m                 D
Be courageous and be brave and in my heart you'll always stay
        A              D
Forever young, forever young
        A              D
Forever young, forever young


Start Strumming

         A                             D                A
May good fortune be with you, may your guiding light be strong
        A                         D               A
Build a stairway to heaven with a prince or a vagabond
            Bm           D               F#m              D
And may you never love in vain, and in my heart you will remain
        A              D
Forever young, forever young
        A              D
Forever young, forever young
Bm      D    A
For......ever young
Bm      D    A
For......ever young
Tap to rate this tab
 
# A B C D E F G H I J K L M N O P Q R S T U V W X Y Z