Song name
# A B C D E F G H I J K L M N O P Q R S T U V W X Y Z

Glenn Hughes - Nights In White Satin tab

Help us improve GuitareTab! Take a short survey!
akordi solam:
Em D C B
Em D C B
Em C Em C
Am B Am B
Em D C

e---------14-15-14-----------14--------------------|
b----17------------17-15--17----17-15-----15-17-16-|
g-16----------------------------------17-----------|
d--------------------------------------------------|
a--------------------------------------------------|
e--------------------------------------------------|


e--------14-15-17-15-14--15-17-15-14-----14-15-14--|
b----17------------------------------17------------|
g-16-----------------------------------------------|
d--------------------------------------------------|
a--------------------------------------------------|
e--------------------------------------------------|


e-19--19-19-18-17--------------19--19-18-17--------|
b-----------------20-17--17-20--------------20-17--|
g--------------------------------------------------|
d--------------------------------------------------|
a--------------------------------------------------|
e--------------------------------------------------|


e-------17--19b-19--20-19-17--19b-19----24-24-24---|
b-17-20--------------------------------------------|
g--------------------------------------------------|
d--------------------------------------------------|
a--------------------------------------------------|
e--------------------------------------------------|

b - STIEPTS UZ AUGSHU (bend string up)
Related for Nights In White Satin tab