Song name
# A B C D E F G H I J K L M N O P Q R S T U V W X Y Z

Glenn Hughes - Orion tab

From Soul Mover
Intro       Verse                   Sometimes Gtr 2 does this
d#|--------|-----------------------|----------------------------|
A#|--------|-----------------------|----------------------------|
F#|o------o|-----------------------|----------------------------|
C#|o6-7--6o|-6-7-7-6--7--6--7-7-6--|-9-10-10-9--10--9--10-10-9--|
G#|-6-7--6-|-6-7-7-6--7--6--7-7-6--|----------------------------|
D#|-4-5--4-|-4-5-5-4--5--4--5-5-4--|----------------------------|

Theres sometimes this keyboard or clean guitar bit in the background
d#|-19p17----19p17----19p17----19p17------|
A#|-------17-------17-------17-------17---|
F#|---------------------------------------|
C#|---------------------------------------|
G#|---------------------------------------|
D#|---------------------------------------|

Chorus                                           |1         |2
d#|---------------------------------------------------------|-----------|
A#|---------------------------------------------------------|-----------|
F#|---------------------------------------9---7----9-9---7--|-5---4-----|
C#|-7-6-7-6-7-6-7-6-10-9-10-9-10-9-10-9---9---7----9-9---7--|-5---4-----|
G#|-7-6-7-6-7-6-7-6-10-9-10-9-10-9-10-9-7-------------------|-----------|
D#|-5-4-5-4-5-4-5-4-8--7-8--7-8--7-8--7---------------------|-----------|

For the solo the bass just plays around the Bb
Tap to rate this tab
# A B C D E F G H I J K L M N O P Q R S T U V W X Y Z