Guitaretab - guitar tabs
Song name
# A B C D E F G H I J K L M N O P Q R S T U V W X Y Z

Gob - Underground tab

intro

                             Guitar 1
e|--------------------------------------------------------------------|
B|--------------------------------------------------------------------|
G|-5-7-8-7-7-8-10-8---------------------------------------------------|
D|-0-0-0-0-0-0--0-0---------------------------------------------------|
A|--------------------------------------------------------------------|
D|--------------------------------------------------------------------|
 |                                                                    |
 |                 Guitar2                                            |
e|--------------------------------------------------------------------|
B|--------------------------------------------------------------------|
G|--------------------------------------------------------------------|
D|--------------------------------------------------------------------|
A|--333333333333333-8p0-7p0-8h10--------------------------------------|
D|--333333333333333---------------------------------------------------|
    xxxxxxxxxxxxxxx


Verse
Guitar 1 and 2

                 x2               This is played at end of verse
e|----------------|-------------|-------------------------------------|
B|----------------|-------------|-------------------------------------|
G|----------------|-------------|-------------------------------------|
D|----------------|-------------|-------------------------------------|
A|-000000002222222|-8p0-7p0-8h10|-5---3-------------------------------|
D|-000000002222222|-------------|-5---3-------------------------------|
   xxxxxxxxxxxxxxx                x   x

Chorus
                   Both guitars

e|---------------------------------------------------------------------|
B|---------------------------------------------------------------------|
G|---------------------------------------------------------------------|
D|---------------------------------------------------------------------|
A|-00-7-87-5-5-7-320-7-5-5h7-3-5-2-0-----------------------------------|
D|-00-7-87-5-5-7-320-7-5-5h7-3-5-2-0-----------------------------------|

[ Tab from: http://www.guitaretab.com/g/gob/164049.html ]
Interlude
          Guitar 1
e|--------------------------------------------------------------------|
B|--------------------------------------------------------------------|
G|--------------------------------------------------------------------|
D|--------------------------------------------------------------------|
A|-00-88-00-77-00-55-22-55--------------------------------------------|
D|-00-88-00-77-00-55-22-55--------------------------------------------|

Guitar 2
e|--------------------------------------------------------------------|
B|--------------------------------------------------------------------|
G|--------------------------------------------------------------------|
D|-0-0-10-8-0-0-8-7-0-0-7-5-33-5-6~-----------------------------------|
A|--------------------------------------------------------------------|
D|--------------------------------------------------------------------|


Verse 2-Guitar 1 (play same as last but after that play this)
e|-----------------|--------------------------------------------------|
B|-----------------|--------------------------------------------------|
G|---7-------------|--------------------------------------------------|
D|---7-------------|--------------------------------------------------|
A|33-5-8p0-7p0-8h10|-5\-------3\--------------------------------------|
D|33---------------|-5\-------3\--------------------------------------|
 |                                                                    |
 |                   Guitar 2 (Not sure on this part)                 |
e|8-7-5-7-10-7-5-7-8-7-5-7-10-7-5-7------------------8-7-5\-----------|
B|-------------------------------Play a couple times------------------|
G|--------------------------------------------------------------------|
D|--------------------------------------------------------------------|
A|--------------------------------------------------------------------|
D|--------------------------------------------------------------------|


Bridge

e|--------------------------------------------------------------------|
B|--------------------------------------------------------------------|
G|--555-777-555-333---------------------------------------------------|
D|--xxx-xxx-xxx-xxx---------------------------------------------------|
A|--333-555-333-111---------------------------------------------------|
D|--------------------------------------------------------------------|

Second Bridge:

B|--555-666-555-333--------|
G|--555-777-555-333--------|
D|--555-777-555-333--------|
A|--333-555-333-111--------|


Haven't figured out the other solo


Outro

A|-----22\1--------|
E|-1/22------------|

And then hit G5 twice to end it.

I know that some of the stuff i have is wrong but i couldn't find any tabs for it that 
in Drop C

x-palm mute
h-hammer on
p-pull off
/-slide up
\-slide down
Related for Underground tab