Guitaretab - guitar tabs
Song name
# A B C D E F G H I J K L M N O P Q R S T U V W X Y Z

God Forbid - Fallen Hero tab

To The Fallen Hero Tab by God Forbid,


  # Please Note, this is the authors own work and should only be used for 
learning and studying, DO NOT COPY, Thank You #





Band - God Forbid
Song - To The Fallen Hero
Album - IV: Constitution Of Treason ( 2005 Century Media ) 
Tabber -Daniel....Guitar_player_crimson07

Tuning - C G C F A D 

Guitar I - CGCFAD - Doc

Guitar II - CGCFAD - Dallas

Intro;              ~ good luck wish you the best ~

Guitar I -      


D||-----------------------------------------------------------------------||
A||-----------------------------------------------------------------------||
F||-----------------------------------------------------------------------||
C||-12/1--00-12-00-10-00-8-00-7-00-8-00-10-00-8-00-7-00-5-00-3-00-2-00-3--||
G||-----------------------------------------------------------------------||
C||-----------------------------------------------------------------------||
         .. .. .. .. .. . .. . .. . .. .. .. . .. . .. . .. . .. . .. .



D|---------------------------------|
A|---------------------------------|
F|---------------------------------|
C|-10p0-00-8p0-00-7p0-00-5p0-00----|
G|---------------------------------|
C|---------------------------------|


D|-----------------------------------------------------------------------|
A|-----------------------------------------------------------------------|
F|-----------------------------------------------------------------------|
C|-00-15-00-13-00-11-00-13-00-11-00-13-00-12-00-11-00-9-00-8-00-9-00-8---|
G|-----------------------------------------------------------------------|
C|-----------------------------------------------------------------------|
   .. .. .. .. .. .. .. .. .. .. .. .. .. .. .. .. .. . .. . .. . .. .



D|---------------------------------|
A|---------------------------------|
F|---------------------------------|
C|-10p0-00-8p0-00-7p0-00-5p0-00----|
G|---------------------------------|
C|---------------------------------|




D|----------------|
A|----------------|
F|--------9-9-9---|
C|-8-8-8--8-8-8---|
G|-8-8-8----------|
C|-8-8-8----------|

D|-----------------------------------------------------------------------|
A|-----------------------------------------------------------------------|
F|-----------------------------------------------------------------------|
C|-00-15-00-13-00-11-00-13-00-11-00-13-00-12-00-11-00-9-00-8-00-9-00-8---|
G|-----------------------------------------------------------------------|
C|-----------------------------------------------------------------------|
   .. .. .. .. .. .. .. .. .. .. .. .. .. .. .. .. .. . .. . .. . .. .



D|--------------------|
A|--------------------|
F|--------9--12-12-12-|
C|-8-8-8--8--11-11-11-|
G|-8-8-8--------------|
C|-8-8-8--------------|


D|----------------------------------------------|
A|----------------------------------------------|
F|----------------------------------------------|
C|----------------------------------------------|
G|----------------------------------------------|
C|-00-12-00-10-00-8-00-7-00-5-00-3-00-2-00-3-3*^|




Guitar II - Starts Later Then Guitar I


D|-----------------------------------------------------------------------|
A|-----------------------------------------------------------------------|
F|-----------------------------------------------------------------------|
C|-00-15-00-13-00-11-00-13-00-11-00-13-00-12-00-11-00-9-00-8-00-9-00-8---|
G|-----------------------------------------------------------------------|
C|-----------------------------------------------------------------------|
   .. .. .. .. .. .. .. .. .. .. .. .. .. .. .. .. .. . .. . .. . .. .





D|----------------|
A|----------------|
F|--------9-9-9---|
C|-8-8-8--8-8-8---|
G|-8-8-8----------|
C|-8-8-8----------|


D|-------------------------------------------|
A|-------------------------------------------|
F|-------------------------------------------|
C|-------------------------------------------|
G|-------------------------------------------|
C|-00-12-00-10-00-8-00-7-00-5-00-3-00-2-00-3-|



D|---------------------|
A|---------------------|
F|--------9-12-12-12---|
C|-8-8-8--8-11-11-11---|
G|-8-8-8---------------|
C|-8-8-8---------------|


Verse;

Guitar I



D|---------------------------------------------|
A|---------------------------------------------|
F|---------------------------------------------| x 4
C|-0000-0-0000---------------------------------|
G|-0000-0-0000--5p3p0-0-7p5p0-0-5p3p0-0-3p1p0--|
C|-0000-0-0000---------------------------------|
   .... . ....  ..... . ..... . ..... . .....

Guitar II




D|-----------------------------------------|
A|-----------------------------------------|
F|-----------------------------------------|
C|-0000-0-0000--0000-0-0000--0000-0-0000---| x 4
G|-0000-0-0000--0000-0-0000--0000-0-0000---|
C|-0000-0-0000--0000-0-0000--0000-0-0000---|
   .... . ....  .... . ....  .... . ....



Pre-Chorus;

Guitar I



D|-------------------------|
A|-------------------------|
F|-7-777---7-777---7-777---|
C|-x-xxx---x-xxx---x-xxx---|
G|-5-555---5-555---5-555---|
C|-------------------------|
     ...     ...     ...

Guitar II 



D|--------------------------------13----13--13\--|
A|------------------------------15----15--15-----|
F|---------8--------------14--14----14-----------| Thanks SaintEve =]
C|-9999-7/9--10101010-8/10--10-------------------|
G|-0000-------0-0-0-0----------------------------|
C|-0000-------0-0-0-0----------------------------|
   ....       . . . . 

Chorus;

Guitar I



D|-----------------------------------------------------|
A|-----------------------------------------------------|
F|--777-5b-3b-2b-----------------------777-5b-3b-2b----|
C|---------------12-14-14-15-14b-12b-------------------|
G|-----------------------------------------------------|
C|-----------------------------------------------------|


Guitar II


D|--------|----------|----------------|
A|--------|----------|----------------|
F|-7~--7~-|-9--10--9-|----------------|
C|-7~--7~-|----------|-8~--5--10~-----|  < Thanks boyty01 for helping 
G|-5~--5~-|-7--8---7-|-8~--5--10~-----|
C|--------|----------|-8~--5--10~-----|


Fill;

Guitar I



D|-----------------------------------------------------------------------|
A|-----------------------------------------------------------------------|
F|-----------------------------------------------------------------------|
C|---00-12-00-10-00-8-00-7-00-8-00-10-00-8-00-7-00-5-00-3-00-2-00-3------|
G|-----------------------------------------------------------------------|
C|-----------------------------------------------------------------------|
     .. .. .. .. .. . .. . .. . .. .. .. . .. . .. . .. . .. . .. .


D|------------------------------------|
A|------------------------------------|
F|------------------------------------|
C|-10p0-00-8p0-00-7p0-00-5p0-00-------|
G|------------------------------3*^---|
C|------------------------------------|


Guitar II - Again Starts Later Then Guitar I

D|-----------------------------------------------------------------------|
A|-----------------------------------------------------------------------|
F|-----------------------------------------------------------------------|
C|-00-15-00-13-00-11-00-13-00-11-00-13-00-12-00-11-00-9-00-8-00-9-00-8---|
G|-----------------------------------------------------------------------|
C|-----------------------------------------------------------------------|
   .. .. .. .. .. .. .. .. .. .. .. .. .. .. .. .. .. . .. . .. . .. .




Verse;

Guitar I

D|---------------------------------------------|
A|---------------------------------------------|
F|---------------------------------------------| x 4
C|-0000-0-0000---------------------------------|
G|-0000-0-0000--5p3p0-0-7p5p0-0-5p3p0-0-3p1p0--|
C|-0000-0-0000---------------------------------|
   .... . ....  ..... . ..... . ..... . .....



Guitar II




D|-----------------------------------------|
A|-----------------------------------------|
F|-----------------------------------------|
C|-0000-0-0000--0000-0-0000--0000-0-0000---| x 4
G|-0000-0-0000--0000-0-0000--0000-0-0000---|
C|-0000-0-0000--0000-0-0000--0000-0-0000---|
   .... . ....  .... . ....  .... . ....



Pre-Chorus;

Guitar I - 


D|----------------------------|
A|----------------------------|
F|----------------------------|
C|-0-00000--0-00000--0-00000--|
G|-0-00000--0-00000--0-00000--|
C|-0-00000--0-00000--0-00000--|
     .....    .....    .....

Guitar II - 

D|--------------------------------13----13--13\--|
A|------------------------------15----15--15-----|
F|---------8--------------14--14----14-----------|< Thanks For The
C|-9999-7/9--10101010-8/10--10-------------------|  Help SaintEve
G|-0000-------0-0-0-0----------------------------|
C|-0000-------0-0-0-0----------------------------|
   ....       . . . . 







Chorus;

Guitar I



D|-----------------------------------------------------|
A|-----------------------------------------------------|
F|--777-5b-3b-2b-----------------------777-5b-3b-2b----|
C|---------------12-14-14-15-14b-12b-------------------|
G|-----------------------------------------------------|
C|-----------------------------------------------------|


Guitar II
[ Tab from: http://www.guitaretab.com/g/god-forbid/149003.html ]
D|--------|----------|----------------|
A|--------|----------|----------------|
F|-7~--7~-|-9--10--9-|----------------|
C|-7~--7~-|----------|-8~--5--10~-----|  < Thanks boyty01 for helping 
G|-5~--5~-|-7--8---7-|-8~--5--10~-----|
C|--------|----------|-8~--5--10~-----|




Bridge;

Guitar I;


D|-----------------------------|---------------------------------|
A|-----------------------------|---------------------------------|
F|-----------------------------|---------------------------------| Then ...
C|------------------8----------|------------------12-------------|
G|------8----10-----------10---|------8----10------------10------|
C|-0000---00----000---000---00-|-0000---00----000----000----000--|
   ....   ..    ...   ...   ..   ....   ..    ...    ...    ...

D|----------------------------|--------------------|
A|----------------------------|--------------------|
F|----------------------------|--------------------|
C|-----------------8----------|--------------------| Then ...
G|------8----10----------10---|------8----10-------|
C|-8888---88---888---888---88-|-0000---00----000---|
   ....   ..   ...   ...   ..   ....   ..    ...
D|---------------------------|
A|---------------------------|
F|------------15p14h15-14h12-|
C|-------14------------------|    ^ Then Repeat All Again^
G|-12-12---12----------------|
C|---------------------------|
   .. ..   ..



Guitar II

D|---------------------------------------------|
A|---------------------------------------------|
F|---------------------------------------------|
C|-8-10-12b--0-----10-12-13b-8~--8-10-12b------|
G|-8-10-12b--0-----10-12-13b-8~--8-10-12b------|
C|-8-10-12b--0-----10-12-13b-8~--8-10-12b------|


D|--------------------|
A|--------------------|
F|--------------------|
C|--------------------| Then ...
G|------8----10-------|
C|-0000---00----000---|
   ....   ..    ...

D|---------------------------|
A|---------------------------|
F|------------15p14h15-14h12-|
C|-------14------------------|
G|-12-12---12----------------|
C|---------------------------|
   .. ..   ..

D|-----------------------------|---------------------------------|
A|-----------------------------|---------------------------------|
F|-----------------------------|---------------------------------| Then ...
C|------------------8----------|------------------12-------------|
G|------8----10-----------10---|------8----10------------10------|
C|-0000---00----000---000---00-|-0000---00----000----000----000--|
   ....   ..    ...   ...   ..   ....   ..    ...    ...    ...

D|----------------------------|--------------------|
A|----------------------------|--------------------|
F|----------------------------|--------------------|
C|-----------------8----------|--------------------| Then ...
G|------8----10----------10---|------8----10-------|
C|-8888---88---888---888---88-|-0000---00----000---|
   ....   ..   ...   ...   ..   ....   ..    ...
D|---------------------------|
A|---------------------------|
F|------------15p14h15-14h12-|
C|-------14------------------|    
G|-12-12---12----------------|
C|---------------------------|
   .. ..   ..




Solo;

D|------------------------------------------------------------------------|
A|------------------------------------------------------------------------|
F|------------------14p12121214p12121214p1212-15p12121215p12121215p121212-|
C|-1200140015-------------------------------------------------------------|
G|------------------------------------------------------------------------|
C|------------------------------------------------------------------------|
   ..........       
                          x 2
D|----------------|---------------------|----------------------------------|
A|----------------|---------------------|-----------------------13h15h1315b|
F|12b--10h12h10b--|7h12h10h9h9h10h9-7b--|--10h12h10h12-10------------------|
C|----------------|---------------------|----------------------------------|
G|----------------|---------------------|----------------------------------|
C|----------------|---------------------|----------------------------------|

D|-15-13-121312b--|
A|----------------|
F|----------------|
C|----------------|
G|----------------|
C|----------------|


Guitar II Plays;


D|----------------------------------|
A|----------------------------------|
F|-7~--7~--5~--5~-------------------|
C|-7~--7~--5~--5~-8~--8~--0~--0~----|  x 2
G|-5~--5~--3~--3~-8~--8~--0~--0~----|
C|----------------8~--8~--0~--0~----|


Fill;

Guitar I

D|-----------------------------|---------------------------------|
A|-----------------------------|---------------------------------|
F|-----------------------------|---------------------------------| Then ...
C|------------------8----------|------------------12-------------|
G|------8----10-----------10---|------8----10------------10------|
C|-0000---00----000---000---00-|-0000---00----000----000----000--|
   ....   ..    ...   ...   ..   ....   ..    ...    ...    ...

D|----------------------------|--------------------|
A|----------------------------|--------------------|
F|----------------------------|--------------------|
C|-----------------8----------|--------------------| Then ...
G|------8----10----------10---|------8----10-------|
C|-8888---88---888---888---88-|-0000---00----000---|
   ....   ..   ...   ...   ..   ....   ..    ...

D|---------------------------|
A|---------------------------|
F|------------15p14h15-14h12-|
C|-------14------------------|    
G|-12-12---12----------------|
C|---------------------------|
   .. ..   ..


Guitar II

D|--------|----------|----------------|
A|--------|----------|----------------|
F|-7~--7~-|-9--10--9-|----------------|
C|-7~--7~-|----------|-8~--5--10~-----|  < Thanks boyty01 for helping 
G|-5~--5~-|-7--8---7-|-8~--5--10~-----|
C|--------|----------|-8~--5--10~-----|



Breakdown;

Guitar I

D|-------------------------|
A|-------------------------|
F|-------------------------|
C|-8888-8-8-88-8888-8-8-88-|
G|-8888-8-8-88-8888-8-8-88-|
C|-8888-8-8-88-8888-8-8-88-|
   .... . . .. .... . . ..

Then.....

D|-----------------------------|---------------------------------|
A|-----------------------------|---------------------------------|
F|-----------------------------|---------------------------------| Then ...
C|------------------8----------|------------------12-------------|
G|------8----10-----------10---|------8----10------------10------|
C|-0000---00----000---000---00-|-0000---00----000----000----000--|
   ....   ..    ...   ...   ..   ....   ..    ...    ...    ...

D|----------------------------|--------------------|
A|----------------------------|--------------------|
F|----------------------------|--------------------|
C|-----------------8----------|--------------------| Then ...
G|------8----10----------10---|------8----10-------|
C|-8888---88---888---888---88-|-0000---00----000---|

D|---------------------------|
A|---------------------------|
F|------------15p14h15-14h12-|             ^Repeat All Again^
C|-------14------------------|    
G|-12-12---12----------------|
C|---------------------------|
   .. ..   ..





Guitar II

D|-------------------------|
A|-------------------------|
F|-------------------------|
C|-8888-8-8-88-8888-8-8-88-| x 4
G|-8888-8-8-88-8888-8-8-88-|
C|-8888-8-8-88-8888-8-8-88-|
   .... . . .. .... . . ..

Acoustic;

Guitar I

      x 4            x 2
D|-------------|--------------|-------------------------13-12----------|
A|-------------|--------------|---------10-9-------------------13-12---|
F|--10-9b-9/10-|---10-9b-9/10-|---10--9------10-9---10--9--------------|
C|-0--0--0-----|--8--8--8-----|-8---8-------------8---8----------------|
G|-------------|--------------|----------------------------------------|
C|-------------|--------------|----------------------------------------|


Chorus;

Guitar I



D|-----------------------------------------------------|
A|-----------------------------------------------------|
F|--777-5b-3b-2b-----------------------777-5b-3b-2b----|
C|---------------12-14-14-15-14b-12b-------------------|
G|-----------------------------------------------------|
C|-----------------------------------------------------|


Guitar II


D|--------|----------|----------------|
A|--------|----------|----------------|
F|-7~--7~-|-9--10--9-|----------------|
C|-7~--7~-|----------|-8~--5--10~-----|  < Thanks boyty01 for helping 
G|-5~--5~-|-7--8---7-|-8~--5--10~-----|
C|--------|----------|-8~--5--10~-----|




Guitar I Ends On;

D|---14b-|
A|-------|
F|-------|
C|-------|
G|-------|
C|-------|

Guitar II Ends On ;

D|----|
A|----|
F|----|
C|-0~-|
G|-0~-|
C|-0~-|


There ! , This Amazing Song, Please Give Feedback And Rate!

Heres The Lyrics If You Want look at them ;


Everyday I live, I remember the sacrifice
Everyday I live, I ensure its not in vain

For those who gave their all (Their all)
You shall live again through me
My solemn vow you are now forever

This may be the last time we see our hero
This is an oath to the fallen heroes 
This is an ode to the ones we lost

This was then and now
The last days before the return
The memory will not be silenced or erased

In the glory of your worth
This is an oath to the fallen heroes
This is an ode to the ones we lost
This is an oath to the fallen heroes
This is an ode to the ones we lost

IIm dying again
IIm dying again 
This was then and now the last days before the return
The memory will never be silenced or erased
May your deed bring peace?
A new resolution of change

This is an oath to the fallen heroes (IIm dying again)
This is an ode to the ones we lost
This is an oath to the fallen heroes (IIm dying again)
This is an ode to the ones we lost (Im dying again)
Im dying again
Related for Fallen Hero tab