Song name
# A B C D E F G H I J K L M N O P Q R S T U V W X Y Z

Godsmack - Temptation tab

#----------------------------------PLEASE NOTE--------------------------------#
#This file is the author's own work and represents their interpretation of the#
#song. You may only use this file for private study, scholarship, or research.#
#-----------------------------------------------------------------------------#
#-- File created with Instab - http://www.pconline.com/~smcarey/instab.html --#
#-----------------------------------------------------------------------------#

Artist: Godsmack
Title: Temptation
Album: IV
Transcribed by: Kevin
Email: xraycat99@yahoo.com

DROP D TUNING!!!!

Intro play once
------------------------------------------------------------------------------|
------------------------------------------------------------------------------|
------------------------------------------------------------------------------|
------------------------------------------------------------------------------|
------------------------------------------------------------------------------|
-0--0-0-3p0-0-3p0-0-0-0-6-6-6--0--0-0-3p0-0-3p0-0-0-0-1p0h1-------------------|


------------------------------------------------------------------------------|
------------------------------------------------------------------------------|
------------------------------------------------------------------------------|
------------------------------------------------------------------------------|
------------------------------------------3-0---------------------------------|
-0--0-0-3p0-0-3p0-0-0-0-6-6-6--0--0-0-3p0-3-0---------------------------------|


Main Riff 4 times (different endings labeled 1-4)
------------------------------------------------------------------------------|
------------------------------------------------------------------------------|
------------------------------------------------------------------------------|
------------------------------------------------------------------------------|
-0--0-0-3p0-0-3p0-0-0-0-6-6-6--0--0-0-3p0-0-3p0-0-0-0-*ending here*-----------|
-0--0-0-3p0-0-3p0-0-0-0-6-6-6--0--0-0-3p0-0-3p0-0-0-0-------------------------|


  1+3        2              4
--------|---------|---------------------|
--------|---------|---------------------|
--------|--8-8-8--|-----8-----8-----8---|
--------|--8-8-8--|-----8-----8-----8---|
-1p0h1--|--6-6-6--|-0-0-6-0-0-6-0-0-6-0-|
-1p0h1--|---------|-0-0---0-0---0-0---0-|


Verse part 1
------------------------------------------------------|
--------------------------------3---------------------|
-7-------7\5--------------------2-------7\5-----8-----|
-x-------x\x--------6-----------0-------x\x-----x-----|
-5-------5\3--------6-----------0-------5\3-----6-----|
--------------------6-------3b--0---------------------|


Verse part 2 w/ wah effect (played with part 1 in background)
----------------------------------------------------|
----------------------------------------------------|
----------------------------------------------------|
-x-x-x-x-x-x-x-x-x-x-x-x-x-x-x-x-x-x-x-x-x-x-x-x-x--|
-x-x-x-x-x-x-x-x-x-x-x-x-x-x-x-x-x-x-x-x-x-x-x-x-x--|
-x-x-x-x-x-x-x-x-x-x-x-x-x-x-x-x-x-x-x-x-x-x-x-x-x--|

Chorus 2 times
------------------------------------------------------------------------------|
------------------------------------------------------------------------------|
------------------------------------------------------------------------------|
------------------------------------------------------------------------------|
-0--0-0-3p0-0-3p0-0-0-0-6-6-6--0-0-0-3p0-0-3p0-0-0-0-1p0h1--*ending here*-----|
-0--0-0-3p0-0-3p0-0-0-0-6-6-6--0-0-0-3p0-0-3p0-0-0-0-1p0h1--------------------|


           1                       2
---------------------------|---------------|
---------------------------|---------------|
-5-5-5-5-5-5---------------|------5--------|
-5-5-5-5-5-5--6-6-6-6-6-6--|------5-----6--|
-3-3-3-3-3-3--6-6-6-6-6-6--|------3-----6--|
--------------6-6-6-6-6-6--|------------6--|


Repeat verse
Repeat chorus


2nd chorus ending
--------------|
--------------|
-5------------|
-5----6---3-3-|
-3----6---3-3-|
------6---3-3-|

Bridge part 1  2 times (/w wah)
------------------------------------------------------------------------------|
------------------------------------------------------------------------------|
-7-7-7-7-7-7--10-10-10-10-10-10--12-12-12-12-12-12--15-15-15-15-15-15---------|
-x-x-x-x-x-x--x--x--x--x--x--x----x--x--x--x--x--x---x--x--x--x--x--x---------|
-5-5-5-5-5-5--8--8--8--8--8--8---10-10-10-10-10-10--13-13-13-13-13-13---------|
------------------------------------------------------------------------------|


-------------------------------------------------------------------------------|
-------------------------------------------------------------------------------|
-7-7-7-7-7-7--10-10-10-10-10-10--12-12-12-12-12-12--8-8-8-8-8-8/10-108-8-------|
-x-x-x-x-x-x--x--x--x--x--x--x----x--x--x--x--x--x--x-x-x-x-x-x/x--x-x-x-------|
-5-5-5-5-5-5--8--8--8--8--8--8---10-10-10-10-10-10--6-6-6-6-6-6/8--8-6-6-------|
-------------------------------------------------------------------------------|


bridge part 2 1 times
----------------------------------------------------|
----------------------------------------------------|
-------------------------7-7-7-7-7-7-7-7-7-7-7-7-7--|
-0-0-0-0-0-0-0-0-0-0-0-0-x-x-x-x-x-x-x-x-x-x-x-x-x--|
-0-0-0-0-0-0-0-0-0-0-0-0-5-5-5-5-5-5-5-5-5-5-5-5-5--|
-0-0-0-0-0-0-0-0-0-0-0-0-0-0-0-0-0-0-0-0-0-0-0-0-0--|


----------------------------------------------|
----------------------------------------------|
----------------------------------------------|
----------------------------------------------|
------------------------------------------3-0-|
-0--0-0-3p0-0-3p0-0-0-0-6-6-6--0--0-0-3p0-3-0-|


Repeat Chorus


Finish with this main riff variation:

------------------------------------------------------------------------------|
------------------------------------------------------------------------------|
------------------------------------------------------------------------------|
------------------------------------------------------------------------------|
-0--0-0-3p0-0-3p0-0-0-0-6-6-6--0--0-0-3p0-0-3p0-0-0-0-1p0h1-------------------|
-0--0-0-3p0-0-3p0-0-0-0-6-6-6--0--0-0-3p0-0-3p0-0-0-0-1p0h1-------------------|

---------------------|
---------------------|
-----8-----8-----8---|
-----8-----8-----8---|
-0-0-6-0-0-6-0-0-6-0-|
-0-0---0-0---0-0---0-|
Tap to rate this tab
# A B C D E F G H I J K L M N O P Q R S T U V W X Y Z