Guitaretab - guitar tabs
Song name
# A B C D E F G H I J K L M N O P Q R S T U V W X Y Z

Goldfinger - I Want tab

I WANT TAB BY GOLFINGER

tabbed by Nico_hero
kyo_araya@hotmail.com

TUNING: STANDARD 


Intro

DRUMS AND THEN

E----------------|
B----------------|
G----------------|
D--5/---2--------|
A--5/---2--------|
E----------------|


Verse


E---------------------------------------------------------------------------|
B---------------------------------------------------------------------------|
G---------------------------------------------------------------------------|
D--4--4-4-4-4-4--4/--5--5-5-5-5-5--5/--7--7-7-7-7-7--7/--5--5-5-5-5-5-------|
A--4--4-4-4-4-4--4/--5--5-5-5-5-5--5/--7--7-7-7-7-7--7/--5--5-5-5-5-5-------|
E--2--2-2-2-2-2--2/--3--3-3-3-3-3--3/--5--5-5-5-5-5--5/--3--3-3-3-3-3-------|
      * * * * *         * * * * *         * * * * *         * * * * *
   Don't want to     spend my time,    wishing you were      here


E---------------------------------------------------------------------------|
B---------------------------------------------------------------------------|
G---------------------------------------------------------------------------|
D--4--4-4-4-4-4--4/--5--5-5-5-5-5--5/---------------------------------------|
A--4--4-4-4-4-4--4/--5--5-5-5-5-5--5/---------------------------------------|
E--2--2-2-2-2-2--2/--3--3-3-3-3-3--3/---------------------------------------|
      * * * * *         * * * * *         
   Don't want to     spend my time     alone

E-------------------------------------------------------------------|
B-------------------------------------------------------------------|
G-------------------------------------------------------------------|
D--77-777-77----5/--2-----------------------------------------------|
A--77-777-77----5/--2-----------------------------------------------|
E--55-555-55--------------------------------------------------------|


E---------------------------------------------------------------------------|
B---------------------------------------------------------------------------|
G---------------------------------------------------------------------------|
D--4--4-4-4-4-4--4/--5--5-5-5-5-5--5/--7--7-7-7-7-7--7/--5--5-5-5-5-5-------|
A--4--4-4-4-4-4--4/--5--5-5-5-5-5--5/--7--7-7-7-7-7--7/--5--5-5-5-5-5-------|
E--2--2-2-2-2-2--2/--3--3-3-3-3-3--3/--5--5-5-5-5-5--5/--3--3-3-3-3-3-------|
      * * * * *         * * * * *         * * * * *         * * * * *
   Don't want to     waste my life,      dwelling on the past


E---------------------------------------------------------------------------|
B---------------------------------------------------------------------------|
G---------------------------------------------------------------------------|
D--4--4-4-4-4-4--4/--5--5-5-5-5-5--5/---------------------------------------|
A--4--4-4-4-4-4--4/--5--5-5-5-5-5--5/---------------------------------------|
E--2--2-2-2-2-2--2/--3--3-3-3-3-3--3/---------------------------------------|
      * * * * *         * * * * *         
   Don't want to lock myself at home

E-------------------------------------------------------------------|
B-------------------------------------------------------------------|
G-------------------------------------------------------------------|
D--77-777-77---11-/--9----------------------------------------------|
A--77-777-77----9-/--7----------------------------------------------|
E--55-555-55--------------------------------------------------------|


Chorus

E-------------------------------------------------------------------|
B-------------------------------------------------------------------|
G-------------------------------------------------------------------|
D-----77------------------------------------------------------------|
A-----55------------77----------------------------------------------|
E-------------------55----------------------------------------------|
     'Cause I want, I need

E-----------------------------------------------------------------------------|
B-----------------------------------------------------------------------------|
G-----------------------------------------------------------------------------|
D----11-11-11-11-11--12-12-12-12-12--7-7-7-7-7--------------------------------|
A-----9--9--9--9--9--10-10-10-10-10--5-5-5-5-5--7-7-7-7-7--55/-77/-88/-77-----|
E-----------------------------------------------5-5-5-5-5--33/-55/-66/-55-----|

      nothing less than you          I want nothing else    at all


E-------------------------------------------------------------------|
B-------------------------------------------------------------------|
G-------------------------------------------------------------------|
D-----77------------------------------------------------------------|
A-----55------------77----------------------------------------------|
E-------------------55----------------------------------------------|
     'Cause I want, I need

E-----------------------------------------------------------------------------|
B-----------------------------------------------------------------------------|
G-----------------------------------------------------------------------------|
D----11-11-11-11-11--12-12-12-12-12--7-7-7-7-7--------------------------------|
A-----9--9--9--9--9--10-10-10-10-10--5-5-5-5-5--7-7-7-7-7--55/-77/-88/-77-----|
E-----------------------------------------------5-5-5-5-5--33/-55/-66/-55-----|

      nothing less than you          I want nothing else     at all

Verse 2


E---------------------------------------------------------------------------|
B---------------------------------------------------------------------------|
G---------------------------------------------------------------------------|
D--4--4-4-4-4-4--4/--5--5-5-5-5-5--5/--7--7-7-7-7-7--7/--5--5-5-5-5-5-------|
A--4--4-4-4-4-4--4/--5--5-5-5-5-5--5/--7--7-7-7-7-7--7/--5--5-5-5-5-5-------|
E--2--2-2-2-2-2--2/--3--3-3-3-3-3--3/--5--5-5-5-5-5--5/--3--3-3-3-3-3-------|
      * * * * *         * * * * *         * * * * *         * * * * *
 
    Don't want         to make excuses              Explaining it away


E---------------------------------------------------------------------------|
B---------------------------------------------------------------------------|
G---------------------------------------------------------------------------|
D--4--4-4-4-4-4--4/--5--5-5-5-5-5--5/---------------------------------------|
A--4--4-4-4-4-4--4/--5--5-5-5-5-5--5/---------------------------------------|
E--2--2-2-2-2-2--2/--3--3-3-3-3-3--3/---------------------------------------|
      * * * * *         * * * * *         
   Just want to spend my time 

E-------------------------------------------------------------------|
B-------------------------------------------------------------------|
G-------------------------------------------------------------------|
D--77-777-77----5/--2-----------------------------------------------|
A--77-777-77----5/--2-----------------------------------------------|
E--55-555-55--------------------------------------------------------|
    with you 
[ Tab from: http://www.guitaretab.com/g/goldfinger/156611.html ]
E---------------------------------------------------------------------------|
B---------------------------------------------------------------------------|
G---------------------------------------------------------------------------|
D--4--4-4-4-4-4--4/--5--5-5-5-5-5--5/--7--7-7-7-7-7--7/--5--5-5-5-5-5-------|
A--4--4-4-4-4-4--4/--5--5-5-5-5-5--5/--7--7-7-7-7-7--7/--5--5-5-5-5-5-------|
E--2--2-2-2-2-2--2/--3--3-3-3-3-3--3/--5--5-5-5-5-5--5/--3--3-3-3-3-3-------|
      * * * * *         * * * * *         * * * * *         * * * * *

    Don't want to walk on ice            Don't want to live on edge


E---------------------------------------------------------------------------|
B---------------------------------------------------------------------------|
G---------------------------------------------------------------------------|
D--4--4-4-4-4-4--4/--5--5-5-5-5-5--5/---------------------------------------|
A--4--4-4-4-4-4--4/--5--5-5-5-5-5--5/---------------------------------------|
E--2--2-2-2-2-2--2/--3--3-3-3-3-3--3/---------------------------------------|
      * * * * *         * * * * *         
  'Cause on the edge I'm looking down

E-------------------------------------------------------------------|
B-------------------------------------------------------------------|
G-------------------------------------------------------------------|
D--77-777-77---11-/--9----------------------------------------------|
A--77-777-77----9-/--7----------------------------------------------|
E--55-555-55--------------------------------------------------------|


Chorus

E-------------------------------------------------------------------|
B-------------------------------------------------------------------|
G-------------------------------------------------------------------|
D-----77------------------------------------------------------------|
A-----55------------77----------------------------------------------|
E-------------------55----------------------------------------------|
     'Cause I want, I need

E-----------------------------------------------------------------------------|
B-----------------------------------------------------------------------------|
G-----------------------------------------------------------------------------|
D----11-11-11-11-11--12-12-12-12-12--7-7-7-7-7--------------------------------|
A-----9--9--9--9--9--10-10-10-10-10--5-5-5-5-5--7-7-7-7-7--55/-77/-88/-77-----|
E-----------------------------------------------5-5-5-5-5--33/-55/-66/-55-----|

      nothing less than you          I want nothing else     at all


E-------------------------------------------------------------------|
B-------------------------------------------------------------------|
G-------------------------------------------------------------------|
D-----77------------------------------------------------------------|
A-----55------------77----------------------------------------------|
E-------------------55----------------------------------------------|
     'Cause I want, I need

E-----------------------------------------------------------------------------|
B-----------------------------------------------------------------------------|
G-----------------------------------------------------------------------------|
D----11-11-11-11-11--12-12-12-12-12--7-7-7-7-7--------------------------------|
A-----9--9--9--9--9--10-10-10-10-10--5-5-5-5-5--7-7-7-7-7--55/-77/-88/-77-----|
E-----------------------------------------------5-5-5-5-5--33/-55/-66/-55-----|

      nothing less than you          I want nothing else     at all


|-----------------------------------------------------------------|
| I HAVEN'T FIGURED OUT THE PARTS THAT FOLLOWS THE SECOND CHORUS  |
|           IF YOU CAN GET IT, PLEASE MAIL ME!                    | 
|-----------------------------------------------------------------|


VERSE 3

E---------------------------------------------------------------------------|
B---------------------------------------------------------------------------|
G---------------------------------------------------------------------------|
D--4--4-4-4-4-4--4/--5--5-5-5-5-5--5/--7--7-7-7-7-7--7/--5--5-5-5-5-5-------|
A--4--4-4-4-4-4--4/--5--5-5-5-5-5--5/--7--7-7-7-7-7--7/--5--5-5-5-5-5-------|
E--2--2-2-2-2-2--2/--3--3-3-3-3-3--3/--5--5-5-5-5-5--5/--3--3-3-3-3-3-------|
      * * * * *         * * * * *         * * * * *         * * * * *
   Don't want to     spend my time,    wishing you were      here


E---------------------------------------------------------------------------|
B---------------------------------------------------------------------------|
G---------------------------------------------------------------------------|
D--4--4-4-4-4-4--4/--5--5-5-5-5-5--5/---------------------------------------|
A--4--4-4-4-4-4--4/--5--5-5-5-5-5--5/---------------------------------------|
E--2--2-2-2-2-2--2/--3--3-3-3-3-3--3/---------------------------------------|
      * * * * *         * * * * *         
   Don't want to     spend my time     alone


E-------------------------------------------------------------------|
B-------------------------------------------------------------------|
G-------------------------------------------------------------------|
D--77-777-77---11-/--9----------------------------------------------|
A--77-777-77----9-/--7----------------------------------------------|
E--55-555-55--------------------------------------------------------|

Chorus

E-------------------------------------------------------------------|
B-------------------------------------------------------------------|
G-------------------------------------------------------------------|
D-----77------------------------------------------------------------|
A-----55------------77----------------------------------------------|
E-------------------55----------------------------------------------|
     'Cause I want, I need

E-----------------------------------------------------------------------------|
B-----------------------------------------------------------------------------|
G-----------------------------------------------------------------------------|
D----11-11-11-11-11--12-12-12-12-12--7-7-7-7-7--------------------------------|
A-----9--9--9--9--9--10-10-10-10-10--5-5-5-5-5--7-7-7-7-7--55/-77/-88/-77-----|
E-----------------------------------------------5-5-5-5-5--33/-55/-66/-55-----|

      nothing less than you          I want nothing else     at all


E-------------------------------------------------------------------|
B-------------------------------------------------------------------|
G-------------------------------------------------------------------|
D-----77------------------------------------------------------------|
A-----55------------77----------------------------------------------|
E-------------------55----------------------------------------------|
     'Cause I want, I need

E-----------------------------------------------------------------------------|
B-----------------------------------------------------------------------------|
G-----------------------------------------------------------------------------|
D----11-11-11-11-11--12-12-12-12-12--7-7-7-7-7--------------------------------|
A-----9--9--9--9--9--10-10-10-10-10--5-5-5-5-5--7-7-7-7-7--55/-77/-88/-77-----|
E-----------------------------------------------5-5-5-5-5--33/-55/-66/-55-----|

      nothing less than you          I want nothing else     at all




That's it! enjoy!
Feel free to change it and improve!
kyo_araya@hotmail.com 


Related for I Want tab
I Want chords by Goldfinger