Song name
# A B C D E F G H I J K L M N O P Q R S T U V W X Y Z

Goldfinger - Bury Me tab

Help us improve GuitareTab! Take a short survey!
'Bury Me' by Goldfinger.

Standard Tuning

I love this song and realised no one had tabbed it so I thought I would. Enjoy. I 
know it's not 100%.

Intro (Main Riff)

(Guitar 1)
----------------------------------------------------------------------|
----------------------------------------------------------------------|
--------------------------5--4----------------------------------------|
---2^3--2-----------------3--2--5--8--7--3--5-------------------------|
-----------3--6--5--1--3--------3--6--5--1--3-------------------------|
----------------------------------------------------------------------|

             --------------------------------------------------|
             --------------------------------------------------|
             -----------------------------5--4-----------------|
             -----------------------------3--2--5--8--7--3--5--|
             --------3-----------5--------------3--6--5--1--3--|
             --1--1-----1--3--3-----3--------------------------|

             --------------------------------------------------|
             --------------------------------------------------|
             -----------------------------5--4-----7--5--4-----|
             -----------------------------3--2--5--5--3--2--5--|
             --3--3--3--3--5--5--5--5-----------3-----------3--|
             --1--1--1--1--3--3--3--3--------------------------|

             --------------------------------|
             --------------------------------|
             --------------------------------|
             --------------------------------|
             --3--3--3--3--5--5--5--5--5-----|
             --1--1--1--1--3--3--3--3--3-12/-|

(Guitar 2)
--------------------------------------------------------|
-------------------------------13-13-13-13--------------|
------10-10-10-10-12-12-12-12-x--x--x--x--12-12-12-12---|
------x--x--x--x--x--x--x--x--10-10-10-10-x--x--x--x----|
------8--8--8--8--10-10-10-10-------------10-10-10-10---|
--------------------------------------------------------|

--------------------------------------------------------|
------------------------------13-13-13-13-13-13-13-13---|
------10-10-10-10-12-12-12-12-x--x--x--x--x--x--x--x----|
------x--x--x--x--x--x--x--x--10-10-10-10-10-10-10-10---|
------8--8--8--8--10-10-10-10---------------------------|
--------------------------------------------------------|

--------------------------------------|
--------------------------------------|
------10-10-10-10-12-12-12-12---------|
------x--x--x--x--x--x--x--x----------|
------8--8--8--8--10-10-10-10---------|
------------------------------12/-----|

Verse:

--------------------------------------------0------|
--------0-----------0-----------0------------------|
-----0-----0-----0-----0-----0-----0-----0-----0---|   X2
---------------------------------------------------|
--7-----------7-----------6-----------6------------|
---------------------------------------------------|

'I'm so tired...'   !!!!!NOTICE: how often the high E is hit!!!!!
---------------------------------------------------|
--------0-----------0-----------0-----------0------|
-----0-----0-----0-----0-----0-----0-----0-----0---|
---------------------------------------------------|
--7-----------7-----------6-----------6------------|
---------------------------------------------------|

--------------------------------------------0------|
--------0-----------0-----------0------------------|
-----0-----0-----0-----0-----0-----0-----0-----0---|
---------------------------------------------------|
--7-----------7-----------6-----------6------------|
---------------------------------------------------|

Pre Chorus:

--------------------------------------------------------------------------|
--------------------------------------------------------------------------|
--------------------------------------------------------------------------|
---3-3----5-5----7-7-7-7-7-7-7-7--3-3-x---5-5----6-6-6-6-6-6-6-6----------|
---3-3----5-5----7-7-7-7-7-7-7-7--3-3-x---5-5----6-6-6-6-4-4-4-4----------|
---1-1----3-3----5-5-5-5-5-5-5-5--1-1-x---3-3----4-4-4-4-4-4-4-4--12/-----|

Chorus:                         |========='Bury Me' section,repeat however
                                |                many times needed.
                                |
-------------------------/==============------------------------|
------------------------/---------------\-----------------------|
--5555-----------------/----5555-5555----\----------------------|    X2
--5555-5555-7777-3333-|--6666-5555-5555--|----------------------|
--3333-5555-7777-3333-|--6666-5555-3333--|----------------------|
-------3333-5555-1111-|--4444-3333-------|----------------------|

Verse 2 = same as v. 1
Chorus
Bridege:

             --------------------------------------------------|
             --------------------------------------------------|
             --------------------------------------------------|
             -----------------------------3--2-----------------| X2
             -----------------------------------3--6--5--1--3--|
             --------------------------------------------------|

             --------------------------------------------------|
             --------------------------------------------------|
             --------------------------------------------------|
             -----------------------------3--2-----------------| X2
             --------3-----------5--------------3--6--5--1--3--|
             --1--1-----1--3--3-----3--------------------------|

Then just play intro again. And on 4th time go to: --------------|
                                                   --------------|
                                                   --------------|
                                                   ------6-------|
                                                   ------6-------|
                                                   ------4-------|
                                                        (Muted)

Pre Chorus without the -----
                       -----
                       -----
                       -5-5-
                       -5-5-
                       -3-3-

Chorus, intro riff and end on -----
                              -----
                              -----
                              --6--
                              --6--
                              --4--

Cheeers.
Related for Bury Me tab