Guitaretab - guitar tabs
Song name
# A B C D E F G H I J K L M N O P Q R S T U V W X Y Z

Goldfinger - My Head tab

-------------------------------------------------------------------------------
My Head - Goldfinger
-------------------------------------------------------------------------------

Well this Goldfinger song kick ass much like every one of them! But this is
correct I think, if itís out it still sounds good! So please rate etc!!!!

Key:
** = Palm Mute
~~ = Let Ring
XX = Left Hand Damping
<< = Pick Slide
^^ = Bend String
h = Hammer On
p = Pull Off
 
Intro and verse
e|-------------------------------------------|
B|-------------------------------------------|
G|----------66666666-77777777-99999999-------|
D|-77777777-66666666-77777777-99999999-------|
A|-77777777-44444444-55555555-77777777-------|
E|-55555555----------------------------------|

Bride 1
e|---------------------|
B|---------------------|
G|----666--------------|
D|-77-666-444-66-2-----|
A|-77-444-444-66-2-----|
E|-55-----222-44-0-----|

Chorus
e|-------------------------------------------|
B|-------------------------------------------|
G|-------------------------------------------|
D|-4444444444-2222222222---------------------|
A|-4444444444-2222222222---------------------|
E|-2222222222-0000000000-5-5-4-4-2-2-4-4-----|
                         * * * * * * * *
[ Tab from: http://www.guitaretab.com/g/goldfinger/7046.html ]
Bridge 2 (play this part clean)
e|-5-5-5-5-5-5-5-5--4-4-4-4-4-4-4-4--5-5-5-5-5-5-5-5--7-7-7-7-7-7-7-7-|
B|-5-5-5-5-5-5-5-5--5-5-5-5-5-5-5-5--7-7-7-7-7-7-7-7--9-9-9-9-9-9-9-9-|
G|-6-6-6-6-6-6-6-6--6-6-6-6-6-6-6-6--7-7-7-7-7-7-7-7--9-9-9-9-9-9-9-9-|
D|-7-7-7-7-7-7-7-7--6-6-6-6-6-6-6-6--7-7-7-7-7-7-7-7--9-9-9-9-9-9-9-9-|
A|-7-7-7-7-7-7-7-7--4-4-4-4-4-4-4-4--5-5-5-5-5-5-5-5--7-7-7-7-7-7-7-7-|
E|-5-5-5-5-5-5-5-5----------------------------------------------------|

Bridge 3 (slightly bend each note as your playing it)
e|----------------------------------------------|
B|----------------------------------------------|
G|----------------------------------------------|
D|----------------------------------------------|
A|----------------------------------------------|
E|-9---7---5-4h5p4---4---5---2---7---4---0------|

e|----------------------------------------------------|
B|----------------------------------------------------|
G|---------777777-999999----------777777-999999-------|
D|-77--77--777777-999999-77777777-777777-999999-------|
A|-77--77--555555-777777-77777777-555555-777777-------|
E|-55--55----------------55555555---------------------|
                          *******
Intro and verse x2 ( first time clean second distorted)
Bridge 1 x2
Intro and verse x2 (palm muted)
Chorus x2
Bridge 1 x2
Bridge 2
Bridge 3
Intro and verse
Chorus x4
Bridge 1
Bridge 4 (after that just a pick slide)
Intro and verse x2 ( first time clean second distorted)
Chorus x4
Bridge 1 x4

Rate or correct or whatever  email = funkeymonkey10@hotmail.com
===============================================================================
Related for My Head tab