Song name
# A B C D E F G H I J K L M N O P Q R S T U V W X Y Z

Gomez - Make No Sound tab

tabbed by Ian Kane
song Make No Sound
by Gomez
Tuning Standard

Main Riff/intro

---5--2----2--1---1--0-------|
-----------------------3-0---|
-----------------------------|
-----------------------------|
-----------------------------|
-7-------4------3------------|


Chorus
------------second time through ends on this note---------|
------------------------------------------------\/--------|
-------8---8--------6-----6-------4-----4-------3-----3---|  (x2)
-----9--9---------7---7---------5---5---------4---4-------|
---9-----9------7-------7-----5-------5-----4-------4-----|
-7------------5-------------3-------------2---------------|

play according to song

this is my firs tab email any comments to tripolarity3@gmail.com rate and enjoy Gomez Fans
Tap to rate this tab
 
# A B C D E F G H I J K L M N O P Q R S T U V W X Y Z