Guitaretab - guitar tabs
Song name
# A B C D E F G H I J K L M N O P Q R S T U V W X Y Z

Gone Jackals - Trapped tab

---------------------------------------------------------------------------
	                       Trapped  Gone Jackals
---------------------------------------------------------------------------

Tabbed by: Guitarman 92
Email: nicke_zero@hotmail.com
Tuning:Standard (EADGBe)

Song:Trapped
Band:Gone Jackals 
Album:Bone To Pick

This is the Intro to Trapped by Gone Jackals from Bones To Pick.
I Couldn't find it anywhere, so I tried to tab it (It's my first tab).
                                  Enjoy!
[ Tab from: http://www.guitaretab.com/g/gone-jackals/192129.html ]
                              
   Let Ring 
e||--------------------------------------------------------------------||
B||------0-------0-------0-------0-------0-------0-------0-------0-----||
G||--------------------------------------------------------------------||
D||----5---5---5---5---5---5---5---5---6---6---5---5---3---3---3---3---||x3
A||--------------------------------------------------------------------||
E||--3-------3-------3-------3-------4-------3-------1-------1---------||



e||--------------------||
B||------0-------------||
G||-----------5-4------||
D||----3---3------5-3--||
A||--------------------||
E||--1-----------------||




Legend

| /  slide up
| \  slide down
| h  hammer-on
| p  pull-off
| ~  vibrato
| +  harmonic
| x  Mute note

Related for Trapped tab