Song name
# A B C D E F G H I J K L M N O P Q R S T U V W X Y Z

Goo Goo Dolls - Name tab

the guitar tabs ive seen.... are quite disappointing... i think my tabs are the closest to what johnny plays... here it is 

*-hammer
/-slide

verse:

------0-------0-|------0-------0-|------0-------0-|-------0------|-------0--------
--------0-------|--------0-------|--------0-------|--------------|----------------
----2------2----|----2------2----|----2------2----|----2---------|----2-----------
----------------|----------------|--0-------------|--------------|----------------
--0-------------|--4-------------|----------------|--4-----------|--2--------0----
----------------|----------------|----------------|--------------|----------------


--0-0---0-0-0---|--0-0---0-0-0-0-|
--0-0*2-2/5-5---|--0-0*2-2-2-0-0-|
--2-2---2/4-4---|--2-2---2-2-2-2-|
--2-2---0-0-0---|--2-2---0-0-0-0-|
--0-0---0-0-0---|--0-0---0-0-0-0-|
----------------|----------------|

chorus:

    F#                E 
and now were grown up orphans
    D
we never knew our names
    F#            E              E  
we dont belong to no one thats a shame
F#             E         D   
you could hide beside me maybe for a while
    F#          E           D
and i wont tell no one your name


thats about it hope you enjoy playing it


any comments: salazar_marlon35@yahoo.com




Tap to rate this tab
# A B C D E F G H I J K L M N O P Q R S T U V W X Y Z