Song name
# A B C D E F G H I J K L M N O P Q R S T U V W X Y Z

Goo Goo Dolls - Name tab

Bryce Eakin

Goo Goo Dolls - Name

This tab is based on the excellent version by Tristan Hoogland, but I've
modified it to give more of the harmonic richness from the original song.  
If you compare side by side, you'll notice a slight difference in the tuning
and in particular the riff between verse lines, but I think you'll find it
a good improvement in accuracy.  Wouldn't have been possible without his
excellent original work which can be found here:

http://www.guitaretab.com/g/goo-goo-dolls/24215.html

Tuning:
DAEAAE
Drop the low E string to a D
Raise the D string to an E
Raise the G string to an A
Lower the B string to an A

Key: 
/ = slide
x = block out



Intro:
          A            G#           D        B/D    Em/D
E|-------0------------0------------0------------0------0------|
A|------------------------------------------------------------|
A|-----0---0---0----0---0---0----0---0---0----0------0--------|
D|-----------0------------0------------0----------------------|
A|-----------------------------5------------------------------|
D|---7------------6-------------------------4------2-------0--|
     
         Am7   Ab/E    Db              Am7 Ab/E        Am7 A/D Am7 Ab/E Am7
E|----0---0---0----0---0---0---0----0---0---0---0---0---0---0---0---0---0---|
A|----0---0---0----0---0---0---0----0---0---0---0---0---0---0---0---0---0---|
A|----0---0---0----0---0---0---0----0---0---0---0---0---0---0---0---0---0---|
D|---7/9--9--9/12--12--12--12--12--7/9--9---9---9---7---0---7---9---7---0---|
A|---7/9--9--9/12--12--12--12--12--7/9--9---9---9---7---0---7---9---7---0---|
D|--------------------------------------------------------------------------|


Chorus:
  B/D  B/D#          Em/D Em/D#         A/D
E|0--4--5------------0--0--2-------0--0--0--0--0---------|
A|0--0--0------------0--0--0-------0--0--0--0--0---------|
A|0--0--0------------0--0--0-------0--0--0--0--0---------|
D|0--0--0------------0--0--0-------0--0--0--0--0---------|
A|4--4--4------------2--2--2-------0--0--0--0--0---------|
D|4--4--4------------2--2--2-------0--0--0--0--0---------|

  B/D  B/D#          Em/D Em/D#         A/D 
E|0--4--5------------0--0--2-------0--5--7--9--7---------|
A|0--0--0------------0--0--0-------0--0--0--0--0---------|
A|0--0--0------------0--0--0-------0--0--0--0--0---------|
D|0--0--0------------0--0--0-------0--0--0--0--0---------|
A|4--4--4------------2--2--2-------0--0--0--0--0---------|
D|4--4--4------------2--2--2-------0--0--0--0--0---------|

  B/D  B/D#          Em/D Em/D#         A/D
E|0--4--5------------0--0--2-------0--0--0--0--0---------|
A|0--0--0------------0--0--0-------0--0--0--0--0---------|
A|0--0--0------------0--0--0-------0--0--0--0--0---------|
D|0--0--0------------0--0--0-------0--0--0--0--0---------|
A|4--4--4------------2--2--2-------0--0--0--0--0---------|
D|4--4--4------------2--2--2-------0--0--0--0--0---------|

  B/D  B/D#          Em/D Em/D#   A/D
E|0--4--5------------0--0--2-------0|
A|0--0--0------------0--0--0-------0|
A|0--0--0------------0--0--0-------0| LET RING...
D|0--0--0------------0--0--0-------0|
A|4--4--4------------2--2--2-------0|
D|4--4--4------------2--2--2-------0|

Solo: (Strum all the strings except for the low E string unless has a
number on it.)

Extra Line (e.g 5--5) equals very slight break or break.

------------------------------------0-0-0-0-0-0-0-0-------------------|
--0-2-4-4-2-0-0-2-4-0-0-2-4-5-4-4-5-x-x-x-x-x-x-x-x-4-2-3-2-0-0-0-0-0-|
--0-2-4-4-2-0-0-2-4-0-0-2-4-5-4-4-5-7-7-7-7-7-7-7-7-4-2-3-2-0-0-0-0-0-|
----------------------------------------------------------------------|
----------------------------------------------------------------------|
----------------------------------------------------------------------|

--------------------2-2-2-0-0-0-0-4-4-4-5-5-4-4-4-5-5-4-4-5-5-4-5-7-9-|
--2-0-0-2-2-/-5-0-0---------------------------------------------------|
----------------------------------------------------------------------|
----------------------------------------------------------------------|
----------------------------------------------------------------------|
----------------------------------------------------------------------|

-10-10-9-9-9-9-9-9-10-9-7-5-5-7-7--5-5-5-5-10-10-9-9-7-7-5-2-2-5-5-7-7|
----------------------------------------------------------------------|
----------------------------------------------------------------------|
----------------------------------------------------------------------|
----------------------------------------------------------------------|
----------------------------------------------------------------------|

--9-9-10--10-10-9-7-7--7-7-5-5-5-4-5-5-5|
----------------------------------------|
----------------------------------------|
----------------------------------------|
----------------------------------------|
----------------------------------------|

Ending:
    Am7    Ab/E     Am7   A/D
-0---0---0---0---0---0---0---0---|
-0---0---0---0---0---0---0---0---|
-0---0---0---0---0---0---0---0---|
-0---7---9---9---9---7---0---0---|
-0---7---9---9---9---7---0---0---|
-------------------------7---7---|

Thats it thanks for using this tab!  Please share among all.  
Tap to rate this tab
# A B C D E F G H I J K L M N O P Q R S T U V W X Y Z