Guitaretab - guitar tabs
Song name
# A B C D E F G H I J K L M N O P Q R S T U V W X Y Z

Goo Goo Dolls - Name tab

Tristan Hoogland
drummer180@hotmail.com
http://ussjlegend.cjb.net

Goo Goo Dolls - Name

Ok this is it.  The tab you've been looking for. as you can see it looks
very fimilar to the other name tab.  Well it really is, but what i have 
done is taken the time to edit such parts as the solo and verses.  As now
you will find in this version it is 100% real or i hope you do.  Anyway
here is Name by the Goo Goo Dolls.  

P.S COMPARE THE 2 TABS WITH ONE ANOTHER PAGE BY PAGE THEN PLAY BY PLAY.
im sure mine in the end will turn out alot more accurate especially in
the picking part.  Adding in the extra string at the sliding bit in the
verse gives it that extra hit!

(B/D = B standard tuning, etc... all based on the tuning)

Key: 
/ = slide
x = block out

Tuning: DADAAE

Intro:
          A            G#           D        B/D    Em/D
E|-------0-----0------0-----0------0-----0------0------0------|
A|---------0------------0------------0------------------------|
A|-----0-----0------0-----0------0-----0------0------0--------|
D|------------------------------------------------------------|
A|-----------------------------5------------------------------|
D|---7------------6-------------------------4------2-------0--|
       Am7  Ab/E         Db          Am7     Ab/E    Am7 A/D Am7 Ab/E Am7
E|---0---0----0---0---0---0---0---0---0---0---0---0---0---0---0---0---0---|
A|---0--2/4--4/7--7---7---7---7---7---2---4---4---4---2---0---2---4---2---|
A|---0--2/4--4/7--7---7---7---7---7---2---4---4---4---2---0---2---4---2---|
D|---0---0----0---0---0---0---0---0---0---0---0---0---0---0---0---0---0---|
A|---0---0----0---0---0---0---0---0---0---0---0---0---0---0---0---0---0---|
D|------------------------------------------------------------------------|

Chorus:
  B/D  B/D#          Em/D Em/D#         A/D
E|0--4--5------------0--0--2-------0--0--0--0--0---------|
A|0--0--0------------0--0--0-------0--0--0--0--0---------|
A|0--0--0------------0--0--0-------0--0--0--0--0---------|
D|4--4--4------------2--2--2-------0--0--0--0--0---------|
A|4--4--4------------2--2--2-------0--0--0--0--0---------|
D|4--4--4------------2--2--2-------0--0--0--0--0---------|

  B/D  B/D#          Em/D Em/D#         A/D 
E|0--4--5------------0--0--2-------0--5--7--9--7---------|
A|0--0--0------------0--0--0-------0--0--0--0--0---------|
A|0--0--0------------0--0--0-------0--0--0--0--0---------|
D|4--4--4------------2--2--2-------0--0--0--0--0---------|
A|4--4--4------------2--2--2-------0--0--0--0--0---------|
D|4--4--4------------2--2--2-------0--0--0--0--0---------|

  B/D  B/D#          Em/D Em/D#         A/D
E|0--4--5------------0--0--2-------0--0--0--0--0---------|
A|0--0--0------------0--0--0-------0--0--0--0--0---------|
A|0--0--0------------0--0--0-------0--0--0--0--0---------|
D|4--4--4------------2--2--2-------0--0--0--0--0---------|
A|4--4--4------------2--2--2-------0--0--0--0--0---------|
D|4--4--4------------2--2--2-------0--0--0--0--0---------|

  B/D  B/D#          Em/D Em/D#   A/D
E|0--4--5------------0--0--2-------0|
A|0--0--0------------0--0--0-------0|
A|0--0--0------------0--0--0-------0| LET RING...
D|4--4--4------------2--2--2-------0|
A|4--4--4------------2--2--2-------0|
D|4--4--4------------2--2--2-------0|

Solo: (Strum all the strings except for the low E string unless has a
number on it.  I can't be bothered putting in what each chord equals
to many to put down, lol)

Extra Line (e.g 5--5) equals very slight break or break.

------------------------------------0-0-0-0-0-0-0-0-------------------|
--0-2-4-4-2-0-0-2-4-0-0-2-4-5-4-4-5-x-x-x-x-x-x-x-x-4-2-3-2-0-0-0-0-0-|
--0-2-4-4-2-0-0-2-4-0-0-2-4-5-4-4-5-7-7-7-7-7-7-7-7-4-2-3-2-0-0-0-0-0-|
----------------------------------------------------------------------|
----------------------------------------------------------------------|
----------------------------------------------------------------------|

--------------------2-2-2-0-0-0-0-4-4-4-5-5-4-4-4-5-5-4-4-5-5-4-5-7-9-|
--2-0-0-2-2-/-5-0-0---------------------------------------------------|
----------------------------------------------------------------------|
----------------------------------------------------------------------|
----------------------------------------------------------------------|
----------------------------------------------------------------------|

-10-10-9-9-9-9-9-9-10-9-7-5-5-7-7--5-5-5-5-10-10-9-9-7-7-5-2-2-5-5-7-7|
----------------------------------------------------------------------|
----------------------------------------------------------------------|
----------------------------------------------------------------------|
----------------------------------------------------------------------|
----------------------------------------------------------------------|

--9-9-10--10-10-9-7-7--7-7-5-5-5-4-5-5-5|
----------------------------------------|
----------------------------------------|
----------------------------------------|
----------------------------------------|
----------------------------------------|

Ending:
    Am7    Ab/E     Am7   A/D
-0---0---0---0---0---0---0---0---
-0---2---4---4---4---2---0---0---
-0---2---4---4---4---2---0---0---
-0---0---0---0---0---0---0---0---
-0---0---0---0---0---0---0---0---
---------------------------------

Thats it thanks for using this tab!  Please share among all.  I hope
it wasn't to hard to understand but its really easy once you get the 
hang of reading my tab or other tabs.
[ Tab from: http://www.guitaretab.com/g/goo-goo-dolls/24215.html ]
Related for Name tab
Advertisement will be closed in 10 seconds