Song name
# A B C D E F G H I J K L M N O P Q R S T U V W X Y Z

Good Charlotte - The Festival Song tab

e---3-3-3--2-2-2---------------
B---3-3-3--3-3-3---------------
G---2-2-2--2-2-2---------------
D-----------------7-7-7-5-5-5--
A-----------------7-7-7-5-5-5--
E-----------------5-5-5-3-3-3--

Main Riff x7:
e--------------------------------------
B--------------------------------------
G--7--7--7-----------------------------
D--7--7--7--7--7--7--5--5--5--7--7--7--
A--5--5--5--7--7--7--5--5--5--7--7--7--
E-----------5--5--5--3--3--3--5--5--5--

Chorus::
e--------------------------------------------------------------------------
B--------------------------------------------------------------------------
G--7--7--7--7--7--7--7--7--------------------------------------------------
D--7--7--7--7--7--7--7--7--7--7--7--7--7--7--7--7--5--5--5--5--5--5--5--5--
A--5--5--5--5--5--5--5--5--7--7--7--7--7--7--7--7--5--5--5--5--5--5--5--5--
E--------------------------5--5--5--5--5--5--5--5--3--3--3--3--3--3--3--3--

Chorus Cont'd:
e------------------------------------------------------------------
B------------------------------------------------------------------
G-----------------7-7-7-7-7-7-7-7-----------------4-4-4-4-4-4-4-4--
D-7-7-7-7-7-7-7-7-7-7-7-7-7-7-7-7-7-7-7-7-7-7-7-7-4-4-4-4-4-4-4-4--
A-7-7-7-7-7-7-7-7-5-5-5-5-5-5-5-5-7-7-7-7-7-7-7-7-2-2-2-2-2-2-2-2--
E-5-5-5-5-5-5-5-5-----------------5-5-5-5-5-5-5-5------------------

Chorus Cont'd:
e--------------------------
B--------------------------
G--5--5--5--5--------------
D--5--5--5--5--7--7--7--7--
A--3--3--3--3--7--7--7--7--
E--------------5--5--5--5--

End Song On:
e-------------------------
B-------------------------
G--5-------5-------5------
D--5---7---5---7---5---5--
A--3---7---3---7---3---5--
E------5-------5-------3--

Tap to rate this tab
 
# A B C D E F G H I J K L M N O P Q R S T U V W X Y Z