Song name
# A B C D E F G H I J K L M N O P Q R S T U V W X Y Z

Good Charlotte - I Want Candy tab

I want candy
      Good charlotte version

I wouldn’t say this is 100% correct but none of the solos are in the wrong key or some 
so i had to do it my self.


Intro:
----------------------|
-6-6-6--4—-6----------|
-6-6-6--4—-6----------|
-6-6-6--4—-6----------|
-4-4-4--2—-4----------|
----------------------|

solo/intro
----------------------------------------------------------------|
----------------------------------------------------------------|
----------------------------------------------------------------|
---------------------5------------------------------------------|
---------4-5-7-9-----9-7-5-4--------4-5-7-4-5-------------------|
-4-4-6----------------------------5-5---------------------------|

------------------------------------------------------------------|
------------------------------------------------------------------|
------------------------------------------------------------------|
-6-7-9-7-5-4--5-4-------------------------------------------------|
-----------------------7-5-4----------4-5-7-4-5-------------------|
----------------------------------5-5-----------------------------|

verce:
--------------|
-6-4-6--------|
-6-4-6--------|     x4
-6-4-6--------|
-4-2-4--------|


chorus:
same as verce


intro
solo
verce
chorus
solo
verce
chorus
brige (the same riff as verce, mostly drums)
chorus
verce
chorus
Tap to rate this tab
# A B C D E F G H I J K L M N O P Q R S T U V W X Y Z