Guitaretab - guitar tabs
Song name
# A B C D E F G H I J K L M N O P Q R S T U V W X Y Z

Good Charlotte - Something Else tab

GC
Something Else

I love this song. i couldnīt find a tab for this song so I decided to make my own.
This is my first Tab Iīve made  Hope you like it

Rate it!!!!

Questions or Commentes at octaviog2@hotmail.com

Intro/Verse 1
----------------------------------------------------------------|
-6-6-6-6--2221--Stroke down-------------------------------------|
-8-8-8-8--4443--Hammer each chord-------------------------------|x8
-8-8-8-8--4443--------------------------------------------------|
----------------------------------------------------------------|
----------------------------------------------------------------|
      She is a diamond, I am a stone
      I come from nowhere, she's been to Rome
      Her daddyís a lawyer, mines not around
      She has good manners, I'm rough all around

Pre chorus
---------------------------------------------------------------|
-6-----4-----6-----2-------------------------------------------|
-8-x10-6-x10-8-x10-4-x10---------------------------------------|
-8-----6-----8-----4-------------------------------------------|
---------------------------------------------------------------|
---------------------------------------------------------------|
Well, you can come from something, you can come from nothing
You can be princess, you can be a working man
But in the end

Chorus
--------------------------------------------------------|
--------------------------------------------------------|
-4-----4-----2----4----------4-----4----4----4----------|
-4-x10-6-x10-4-x5-6-x5-4-----4-x8--6-x8-4-x5-6-x5-4-----|
-2-----6-----4----6----6-x5--2-----6--2-6--  6----6-x5--|
-----------------------6--------------------------6-----|
We all want something else
We all want something we can't have
We all want something else
We all want something strange to us
Maybe a roll in the dirt or it's a seat in first class
We all want something we canít have
[ Tab from: http://www.guitaretab.com/g/good-charlotte/165395.html ]
Verse 2
----------------------------------------------------------------|
-6-6-6-6--2-2-2-1--Stroke down----------------------------------|
-8-8-8-8--4-4-4-3--Hammer each chord----------------------------|x8
-8-8-8-8--4-4-4-3-----------------------------------------------|
----------------------------------------------------------------|
----------------------------------------------------------------|
She wants to go to reastraunts in Beverly Hills where people stare
But I don't care, it's just what she grew up around
She drags me to parties where people ask me where I went to college
She knows damn well I barely finished school
She knows a lot about yearly salaries and trust funds and dividends
She knows that I don't really care at all
But we got together and it's working ok

Pre chorus
---------------------------------------------------------------|
-6-----4-----6-----2-------------------------------------------|
-8-x10-6-x10-8-x10-4-x10---------------------------------------|
-8-----6-----8-----4-------------------------------------------|
---------------------------------------------------------------|
---------------------------------------------------------------|
Well, you can come from something, you can come from nothing
You can be princess, you can be a working man
But in the end

Chorus
--------------------------------------------------------|
--------------------------------------------------------|
-4-----4-----2----4----------4-----4----4----4----------|
-4-x10-6-x10-4-x5-6-x5-4-----4-x8--6-x8-4-x5-6-x5-4-----|
-2-----6-----4----6----6-x5--2-----6--2-6--  6----6-x5--|
-----------------------6--------------------------6-----|
We all want something else
We all want something we can't have
We all want something else
We all want something strange to us
Maybe a roll in the dirt or it's a seat in first class
We all want something we canít have

Bridge
---------/------------------------------------------------------|
-5-5-5-5-/-4------------D-DOwn----------------------------------|
-7-7-7-7-/-6-DUDUDUD----U-Up------------------------------------|
-7-7-7-7-/-6-----------------------77-77------------7--x8-------|
---------/-------------------------55-55-88---x7----5-----------|
---------/-------------------------------66---------------------|
Well, you can spend your whole life looking for something
Something that might be
Right in front of your eyes
But you'll be looking for something else, you'll never find

Outro
-------------------------------/-------------------------------|
-------------------------------/-------------------------------|
-4-----4-----2----4------------/---4-----4----4----4-----------|
-4-x10-6-x10-4-x5-6-x5-4-----x4/---4-x8--6-x8-4-x5-6-x5-4------|
-2-----6-----4----6----6-x5----/---2-----6--2-6----6----6-x5---|
-----------------------6-------/------------------------6------|
We all want something else
We all want something we can't have
We all want something else
We all want something strange to us
We all want something else
We all want something we can't have
We all want something else
We all want something strange to us
Maybe a roll in the dirt or it's a seat in first class
We all want something we canít have
Related for Something Else tab