Guitaretab - guitar tabs
Song name
# A B C D E F G H I J K L M N O P Q R S T U V W X Y Z

Good Charlotte - Dance Floor Anthem tab

Intro
|--------|--------|--------|---------------------|
|--------|--------|--------|-----------7777-9999-|
|-4-4-4--|-4-4-4--|-4-4-4--|-9999-7777-----------|
|-2-2-2--|-2-2-2--|-2-2-2--|---------------------|
|--------|--------|--------|---------------------|
|--------|--------|--------|---------------------|

Chorus
|-----------------------------------------------------------------------|
|-----------------------------------------------------------------------|
|-1717171717171717-212121-191919-1717-1616161616161616-1616161616161616-|
|--x-x-x-x-x-x-x-x--x-x-x--x-x-x--x-x--x-x-x-x-x-x-x-x--x-x-x-x-x-x-x-x-|
|-1515151515151515-191919-171717-1515-1414141414141414-1414141414141414-|
|-----------------------------------------------------------------------|

|-----------------------------------------------------------------------|
|-----------------------------------------------------------------------|
|-1717171717171717-212121-191919-1717-1919191919191919-1919191919191919-|
|--x-x-x-x-x-x-x-x--x-x-x--x-x-x--x-x--x-x-x-x-x-x-x-x--x-x-x-x-x-x-x-x-|
|-1515151515151515-191919-171717-1515-1717171717171717-1717171717171717-|
|-----------------------------------------------------------------------|

Verse I
|-----------------|-----------------|-----------------|-----------------|
|-----------------|-----------------|-----------------|-----------------|
|-----------------|-----------------|-----------------|-----------------|
|-----------------|-----------------|-----------------|-----------------|
|-7-7-7-7-7-7-7-7-|-7-7-7-7-7-7-7-7-|-5-5-5-5-5-5-5-5-|-5-5-5-5-5-5-5-5-|
|-----------------|-----------------|-----------------|-----------------|
  . . . . . . .   . . . . . . . . .   . . . . . . . .   . . . . . . . .

|-----------------|-----------------|-----------------|-----------------|
|-----------------|-----------------|-----------------|-----------------|
|-----------------|-----------------|-----------------|-----------------|
|-----------------|-----------------|-----------------|-----------------|
|-1010101010101010|-1010101010101010|-3-3-3-3-3-3-3-3-|-3-3-3-3-3-3-3-3-|
|-----------------|-----------------|-----------------|-----------------|
  . . . . . . . .   . . . . . . . .   . . . . . . . .   . . . . . . . .
[ Tab from: http://www.guitaretab.com/g/good-charlotte/86971.html ]
Verse II
|-----|-----------------|-----------------|-----------------|-----------------|
|-----|-----------------|-----------------|-----------------|-----------------|
|4-4-4|-----------------|-----------------|-----------------|-----------------|
|2-2-2|-----------------|-----------------|-----------------|-----------------|
|-----|-7-7-7-7-7-7-7-7-|-7-7-7-7-7-7-7-7-|-5-5-5-5-5-5-5-5-|-5-5-5-5-5-5-5-5-|
|-----|-----------------|-----------------|-----------------|-----------------|
        . . . . . . . .   . . . . . . . .   . . . . . . . .   . . . . . . . . 

|-----------------|-----------------|-----------------|-----------------|
|-----------------|-----------------|-----------------|-----------------|
|-----------------|-----------------|-----------------|-----------------|
|-----------------|-----------------|-----------------|-----------------|
|-1010101010101010|-1010101010101010|-3-3-3-3-3-3-3-3-|-3-3-3-3-3-3-3-3-|
|-----------------|-----------------|-----------------|-----------------|
  . . . . . . . .   . . . . . . . .   . . . . . . . .   . . . . . . . .

|---------------------------|---------------------------|
|---------------------------|---------------------------|
|---------------------------|---------------------------|
|-9---9-------9---9---9-9-9-|-7---7-------7---7---7-7-7-|
|-7---7-7-7-7-7-7-7---7-7-7-|-5---5-5-5-5-5-5-5---5-5-5-|
|---------------------------|---------------------------|
|---------------------------|---------------------------|
|-Those are 12s and 10s!--|---------------------------|
|---------------------------|---------------------------|
|12--12------12--12--121212-|-5---5-------5---5---5-5-5-|
|10--10101010101010--101010-|-3---3-3-3-3-3-3-3---3-3-3-|
|---------------------------|---------------------------|

Bridge
|---------------------------------|
|---------------------------------|
|-------------------------14------|
|-12--12--12-12---12--12------12--|
|-10--10--10-10---10--10----------|
|---------------------------------|

|3x                             |1x                               |
|-------------------------------|---------------------------------|
|-------------------------------|---------------------------------|
|-7-7-7-7-7-7-7-----------------|-7-7-7-7-7-7-7-7-----------------|
|---------------7-7-7-7-9-9-9-9-|-----------------7-7-7-7-7-7-7-7-|
|-------------------------------|-----------------5-5-5-5-5-5-5-5-|
|-------------------------------|---------------------------------|

Verse III
|---------------------------|---------------------------|
|---------------------------|---------------------------|
|---------------------------|---------------------------|
|-9---9-----9-9-9---9-9-9-9-|11-11----111111--11111111-|
|-7---7-----7-7-7---7-7-7-7-|-9---9-----9-9-9---9-9-9-9-|
|---------------------------|---------------------------

|---------------------------|---------------------------|
|---------------------------|---------------------------|
|---------------------------|---------------------------|
|-12--12----121212--12121212|-5--5-----5-5-5---5-5-5-5-|
|-10--10----101010--10101010|-3---3-----3-3-3---3-3-3-3-|
|---------------------------|---------------------------|

Song Order

Intro
Chorus
Verse 1 (2x)
Chorus  (2x)
Verse 2 (2x)
Bridge
Verse 3
Chorus


That's it!  Send comments to legomyeggo64@aim.com!
Related for Dance Floor Anthem tab