Song name
# A B C D E F G H I J K L M N O P Q R S T U V W X Y Z

Good Riddance - Salt tab

-------------------------------------------------------------------------------
			     SALT - Good Riddance
-------------------------------------------------------------------------------
Tabbed by: Blacksailstippa
E-mail: snake_tippa@hotmail.com

Tuning: Standard

pm ....

(Rhythm Guitar in in case you want it as well (plays during intro "solo"))
e|---------------------------------------------------------------------------|
B|---------------------------------------------------------------------------|
G|---5-------5---------55555-------------------55555--------------------5----|
D|---5-5-7-3-5-5-7-3---55555-55555-77777-33333-55555-55555-77777-3333-5-5----|
A|---3-5-7-3-3-5-7-3---33333-55555-77777-33333-33333-55555-77777-3333-5-3----|
E|-----3-5-1---3-5-1---------33333-55555-11111-------33333-55555-1111-3------|
                             

e|---------------------------------------------------------------------------|
B|---------------------------------------------------------------------------|
G|-5-0-5-0-5-0-5-0-5-0-5-0-5-4-5-0-5-0-5-0-5-0-5/7-5p4-5-0-5-0-5-0-5-0-5-4-5-|
D|---------------------------------------------------------------------------|
A|---------------------------------------------------------------------------|
E|---------------------------------------------------------------------------|
      
VERSE 1

e|---------------------------------------------------------------------------|
B|---------------------------------------------------------------------------|
G|---555555------------------------------------------------------------------|
D|---555553-555555-777777-333333---- x2  ------------------------------------|
A|---333333-555555-777777-333333---------------------------------------------|
E|----------333333-555555-111111---------------------------------------------|
      .....  .....  .....  .....            \__pickslide__/

VERSE 2

e|---------------------------------------------------------------------------|
B|---------------------------------------------------------------------------|
G|----555555--------------------55555--------------10101010109---------------|
D|----555555-55555-77777-33333--55555-55555-77777--10101010109---------------|
A|----333333-55555-77777-33333--33353-55555-77777--8-8-8-8-8-7---------------|
E|-----------33333-55555-11111--------33333-55555----------------------------|
                                                                 \(pickslide)/
CHORUS: x2                                       Play this the second time
                                                 back into verse

e|-------------------------------------------|-------------------------------|
B|-------------------------------------------|-------------------------------|
G|-------------12121212--------10101010109---|---10-9-5----------------------|
D|--1010101010-12121212-777777-10101010109---|---10-9-5----------------------|
A|--1010101010-10101010-777777-8-8-8-8-8-7---|---8--7-3----------------------|
E|--8-8-8-8-8-----------555555---------------|-------------------------------|

VERSE 1

e|---------------------------------------------------------------------------|
B|---------------------------------------------------------------------------|
G|---555555------------------------------------------------------------------|
D|---555553-555555-777777-333333---- x2  ------------------------------------|
A|---333333-555555-777777-333333---------------------------------------------|
E|----------333333-555555-111111---------------------------------------------|
      .....  .....  .....  .....            \__pickslide__/

VERSE 2

e|---------------------------------------------------------------------------|
B|---------------------------------------------------------------------------|
G|----555555--------------------55555--------------10101010109---------------|
D|----555555-55555-77777-33333--55555-55555-77777--10101010109---------------|
A|----333333-55555-77777-33333--33353-55555-77777--8-8-8-8-8-7---------------|
E|-----------33333-55555-11111--------33333-55555----------------------------|


CHORUS: x2                                       
                                                 
                                                Play this the second time
e|-------------------------------------------|-------------------------------|
B|-------------------------------------------|-------------------------------|
G|-------------12121212--------10101010109---|---10-9------------------------|
D|--1010101010-12121212-777777-10101010109---|---10-9------------------------|
A|--1010101010-10101010-777777-8-8-8-8-8-7---|---8--7------------------------|
E|--8-8-8-8-8-----------555555---------------|-------------------------------|



e|---------------------------------------------------------------------------|
B|---------------------------------------------------------------------------|
G|---5----------55555-------------10-----------------------------------------|
D|---5-5-7-3----55555-55555-77777-10-----------------------------------------|
A|---3-5-7-3----33333-55555-77777-8------------------------------------------|
E|-----3-5-1----------33333-55555--------------------------------------------|

e|---------------------------------------------------------------------------|
B|---------------------------------------------------------------------------|
G|-5-0-5-0-5-0-5-0-5-0-5-0-5-4-5-0-5-0-5-0-5-0-5/7-5p4-5-0-5-0-5-0-5-0-5-4-5-|
D|---------------------------------------------------------------------------|
A|---------------------------------------------------------------------------|
E|---------------------------------------------------------------------------|

************************************

| /   slide up
| \   slide down
| h   hammer-on
| p   pull-off
| ~   vibrato
| +   harmonic
| x   Mute note
| b   Bend
| pb  Pre-bend
| br  Bend release
| pbr Pre-bend release
| brb Bend release bend

************************************
Tap to rate this tab
# A B C D E F G H I J K L M N O P Q R S T U V W X Y Z