Song name
# A B C D E F G H I J K L M N O P Q R S T U V W X Y Z

Good Riddance - Tell Me Why tab

Band: Good Riddance
Song: Tell me Why
Album: My Repuplic
 
   Questions: p.heg@gmx.de

intro
e|---------------------------|
B|---------------------------|
G|------7~--3~--10~--5~------| 2x
D|------7~--3~--10~--5~------|
A|------5~--1~--8~---3~------|
E|---------------------------|

intro part 2
e|---------------------------------------|
B|---------------------------------------|
G|--10-9-7-9-10-9-7--5-7-7-7-3-3-3-5-3-0-| 
D|---------------------------------------|
A|---------------------------------------|
E|---------------------------------------|

e|----------------------------------------------|
B|----------------------------------------------|
G|--10-9-7-9-10-9-7--12-10-9-10-12-10-12-14-14~-| 
D|----------------------------------------------|
A|----------------------------------------------|
E|----------------------------------------------|

verse
e|-------------------------------------------------|
B|-------------------------------------------------|
G|------7--7-7-7-7---7--7-7-7-7---5--5-5-5-5-5-----|
D|------7--7-7-7-7---7--7-7-7-7---5--5-5-5-5--3----|3x 
A|------5--5-5-5-5---5--5-5-5-5---3--3-3-3-3---3---|
E|---------.-.-.-.------.-.-.-.------.-.-.-.-------|

e|-------------------------------------------------------------------------------------|
B|-------------------------------------------------------------------------------------|
G|-3-3-3-3-3-3-3-3--5-5-5-5-5-5-5-5--10-10-10-10-10-10-10-10-10-10-10-10-10-10-10-9-7--|
D|-3-3-3-3-3-3-3-3--5-5-5-5-5-5-5-5----------------------------------------------------|
A|-1-1-1-1-1-1-1-1--3-3-3-3-3-3-3-3--8--8--8--8--8--8--8--8--8--8--8--8--8--8--8--7-5--|
E|-------------------------------------------------------------------------------------|    


verse


chorus
e|----------------------------------------------|
B|----------------------------------------------|
G|------7-7-7-7-3-3-3-3-10-10-10-10-5-5-5-5-----| 4x
D|------7-7-7-7-3-3-3-3-10-10-10-10-5-5-5-5-----|
A|------5-5-5-5-1-1-1-1-8--8--8--8--3-3-3-3-----|
E|----------------------------------------------|

e|-----------------------------|
B|-----------------------------|
G|-3-3-3-3-3-3-3-3--(5)--(7)---|
D|-3-3-3-3-3-3-3-3-------------|
A|-1-1-1-1-1-1-1-1--(3)--(5)---|
E|-----------------------------| 


Interlude
e|-----------------------|
B|-----------------------|
G|-7~~~~~~~--------------|
D|-7~~~~~~~--------------|
A|-5~~~~~~~--pick grind--|
E|-----------------------| 


intro part 2


outro (same like intro but it sounds a little different)

Tap to rate this tab
 
# A B C D E F G H I J K L M N O P Q R S T U V W X Y Z