Guitaretab - guitar tabs
Song name
# A B C D E F G H I J K L M N O P Q R S T U V W X Y Z

Goodnight Nurse - Details tab

Tuning: Standard

Main Riff - 

e|-------------------------------------------------|
B|-------------------------------------------------|
G|----------------------------1--------------------|
D|----------3--------3--3-----------------1--3-----|
A|-------------------------4-----4p3--3------------|
E|---1--1------3/4---------------------------------|


e|-------------------------------------------------|
B|-------------------------------------------------|
G|----------------------------1--------------------|
D|----------3--------3--3--------------------------|
A|-------------------------4-----4p3--3------------|
E|---1--1------3/4------------------------4--3-----|

x2

Then 

e|--4--6--8---9---8---6--4--3--4--1--|
B|--6--8--9---9---9---8--6--4--6--1--|
G|--5--8--10--10--10--8--5--5--5--1--|
D|-----------------------------------|
A|-----------------------------------|
E|-----------------------------------|

x1

(here play main riff continuously)
I'm consumed by the ireveiw
In my head i wish i never knew
Twist and turns but i can't let it go
and still I wonder why did i have to know

Oh oh, running through the details
Oh oh, I try to quit but i fail
Oh oh, I attempt to exhale
I take a deep breath in and now

                Fm Fm
I got to let it go
   Cm Cm               Fm Fm
Oh this is haunting me so
   Cm       Cm 
Oh What you got to share






e|--8--4--6--3--4--1--3--4--2--|
B|-----------------------------|
G|-----------------------------|
D|-----------------------------|
A|-----------------------------|
E|-----------------------------|

Don't waste my life let it go why did i have to know


(play main riff again)
(I'm laughing) at the mess that i've made
(I'm my head) how can I be saved 
Twist and turns but i can't let it go
still do wonder why did i have to know

Oh oh, running through the details
Oh oh, trying to quit but i fail
Oh oh, I intend to exhale
I take a deep breath in and now

                Fm Fm
I got to let it go
   Cm      Cm          Fm Fm
Oh this is haunting me so
   Cm       Cm 
Oh What you got to share

e|--8--4--6--3--4--1--3--4--2--|
B|-----------------------------|
G|-----------------------------|
D|-----------------------------|
A|-----------------------------|
E|-----------------------------|
 
Don't waste my life let it go why did i have to know

   Cm Cm               Fm Fm
Oh this is haunting me so
   Cm       Cm 
Oh What you got to share

e|--8--4--6--3--4--1--3--4--2--|
B|-----------------------------|
G|-----------------------------|
D|-----------------------------|
A|-----------------------------|
E|-----------------------------|
						 
Don't waste my life let it go why did i have to 
[ Tab from: http://www.guitaretab.com/g/goodnight-nurse/116016.html ]
e|--1-----1-----1-----1--4---1-----1-----1------------------|
B|-----4-----4-----4------------4-----4-----4--1--4---------|
G|----------------------------------------------------------|
D|----------------------------------------------------------|
A|----------------------------------------------------------|
E|----------------------------------------------------------|

know


e|--1-----1-----1-----1--4---1-----1-----4--6--4----------|
B|-----4-----4-----4------------4-----4-----------4-------|
G|--------------------------------------------------------|
D|--------------------------------------------------------|
A|--------------------------------------------------------|
E|--------------------------------------------------------|

Donít waste my life let it go why did I have to know

e|--1-----1-----1-----1--4---1-----1-----1------------------|
B|-----4-----4-----4------------4-----4-----4--1--4---------|
G|----------------------------------------------------------|
D|----------------------------------------------------------|
A|----------------------------------------------------------|
E|----------------------------------------------------------|

Why did i have to know

e|--5--5--5--5--6--6--6--6--------------------------------|
B|--------------------------------------------------------|
G|--------------------------------------------------------|
D|--------------------------------------------------------|
A|--------------------------------------------------------|
E|--------------------------------------------------------|

Why did i

(main riff)
Oh oh, running through the details
Oh oh, I try to quit but i fail
Oh oh, I attempt to exhale
I take a deep breath in and now

                Fm Fm
I got to let it go
   Cm      Cm          Fm Fm
Oh this is haunting me so
    Cm      Cm 
Oh What you got to share

e|--8--4--6--3--4--1--3--4--2--|
B|-----------------------------|
G|-----------------------------|
D|-----------------------------|
A|-----------------------------|
E|-----------------------------|
 
Don't waste my life let it go why did i have to know

   Cm Cm               Fm Fm
Oh this is haunting me so
   Cm       Cm 
Oh What you got to share

e|--8--4--6--3--4--1--3--4--2--|
B|-----------------------------|
G|-----------------------------|
D|-----------------------------|
A|-----------------------------|
E|-----------------------------|
						 
Don't waste my life let it go why did i have to 
 
		  Fm
e|--8---6---4---3---1---|
B|------------------1---|
G|------------------1---|
D|------------------2---|
A|------------------2---|
E|------------------1---|

Waste my life let it go why did i have to know


| /  slide up
| \  slide down
| h  hammer-on
| p  pull-off
| ~  vibrato
| +  harmonic
| x  Mute note
Related for Details tab