Guitaretab - guitar tabs
Song name
# A B C D E F G H I J K L M N O P Q R S T U V W X Y Z

Goodnight Nurse - The Night tab

-------------------------------------------------------------------------------
			     The Night  Goodnight Nurse
-------------------------------------------------------------------------------
Tabbed by: Destamoon
Email: ethans_apprentice@hotmail.com

Tuning: Drop D


Intro/Main Riff

Guitar 1

e|---------------------------------------------------------------------------|
B|---------------------------------------------------------------------------|
G|---12-12--13--12--8----------8-8-8--10-10-10-12----------------------------|
D|---x--x--x--x---x---x2-----x-x-x--x--x--x--x----x2-----------------------|
A|---10-10--11--10--6----------6-6-6--8--8--8--10----------------------------|
D|---------------------------------------------------------------------------|

Guitar 2

e|---------------------------------------------------------------------------|
B|---------------------------------------------------------------------------|
G|---------------------------------------------------------------------------|
D|---6-6-6-6--------8-8-8-8---------10-10-10-10------------------------------|
A|---6-6-6-6---x4---8-8-8-8--x2----10-10-10-10---x2-------------------------|
D|---6-6-6-6--------8-8-8-8---------10-10-10-10------------------------------|


Verse



e|---------------------------------------------------------------------------|
B|---1--1--1--1--1--1--1--1----3--3--3--3----4--4--4-------------------------|
G|--1--1--1--1--1--1--1--1----3--3--3--3----5--5--5-----------x2-------------|
D|---------------------------------------------------------------------------|
A|---------------------------------------------------------------------------|
D|---------------------------------------------------------------------------|
    
      Pm.........................................   
e|---------------------------------------------------------------------------|
B|---------------------------------------------------------------------------|
G|---------------------------------------------------------------------------|
D|----6-6-6-6---------8-8-8-8---------10-10-10-10----------------------------|
A|----6-6-6-6-----x4--8-8-8-8-----x2--10-10-10-10-----x2---------------------|
D|----6-6-6-6---------8-8-8-8---------10-10-10-10----------------------------|

      Pm.....................   
e|---------------------------------------------------------------------------|
B|---------------------------------------------------------------------------|
G|---------------------------------------------------------------------------|
D|----6-6-6-6---------8-8-8-8------------------------------------------------|
A|----6-6-6-6-----x4--8-8-8-8-----x4-----------------------------------------|
D|----6-6-6-6---------8-8-8-8------------------------------------------------|


Chorus


Guitar 1

e|---------------------------------------------------------------------------|
B|---------------------------------------------------------------------------|
G|----10-8-8-8-8-8----10--12-12-12-12-12-----10-10-10-10---13-13-13-13------|
D|----x---x-x-x-x-x----x---x--x--x--x--x------x--x--x--x----x--x--x--x-------|
A|----8---6-6-6-6-6----8---10-10-10-10-10-----8--8--8--8----11-11-11-11------|
D|---------------------------------------------------------------------------|

e|---------------------------------------------------------------------------|
B|---------------------------------------------------------------------------|
G|----10-8-8-8-8-8----10--12-12-12-12-12------------------------------------|
D|----x---x-x-x-x-x----x---x--x--x--x--x-------------------------------------|
A|----8---6-6-6-6-6----8---10-10-10-10-10------------------------------------|
D|---------------------------------------------------------------------------|

e|---------------------------------------------------------------------------|
B|---------------------------------------------------------------------------|
G|----10-10-10-10---8-8-8-8-----13-13-13-13-13-13-13-13----------------------|
D|----x-x--x--x----x-x-x-x-----x--x--x-x--x--x--x--x ----------------------|
A|----8-8-8--8----6-6-6-6-----11-11-11-11-11-11-11-11----------------------|
D|---------------------------------------------------------------------------|

Guitar 2

e|---------------------------------------------------------------------------|
B|---------------------------------------------------------------------------|
G|---8-8---------------------------------------------------------------------|
D|---8-8--6-6-6-6-6-6-6-6------8-8--10-10-10-10-10-10-10-10------------------|
A|---6-6--6-6-6-6-6-6-6-6------8-8--10-10-10-10-10-10-10-10------------------|
D|--------6-6-6-6-6-6-6-6------8-8--10-10-10-10-10-10-10-10------------------|

e|---------------------------------------------------------------------------|
B|---------------------------------------------------------------------------|
G|---------------------------------------------------------------------------|
D|---8-8-8-8-8-8-8-8-----6-6-6-6-6-6-6-6-------------------------------------|
A|---8-8-8-8-8-8-8-8-----6-6-6-6-6-6-6-6-------------------------------------|
D|---8-8-8-8-8-8-8-8-----6-6-6-6-6-6-6-6-------------------------------------|
[ Tab from: http://www.guitaretab.com/g/goodnight-nurse/166937.html ]
e|---------------------------------------------------------------------------|
B|---------------------------------------------------------------------------|
G|---8-8---------------------------------------------------------------------|
D|---8-8--6-6-6-6-6-6-6-6------8-8--10-10-10-10-10-10-10-10------------------|
A|---6-6--6-6-6-6-6-6-6-6------8-8--10-10-10-10-10-10-10-10------------------|
D|--------6-6-6-6-6-6-6-6------8-8--10-10-10-10-10-10-10-10------------------|

e|---------------------------------------------------------------------------|
B|---------------------------------------------------------------------------|
G|---------------------------------------------------------------------------|
D|---8-8-8-8-8-8-8-8-----6-6-6-6-6-6-6-6-----3-3-3-3-3-3-3-3-----------------|
A|---8-8-8-8-8-8-8-8-----6-6-6-6-6-6-6-6-----3-3-3-3-3-3-3-3-----------------|
D|---8-8-8-8-8-8-8-8-----6-6-6-6-6-6-6-6-----3-3-3-3-3-3-3-3-----------------|


Main Riff

Guitar 1

e|---------------------------------------------------------------------------|
B|---------------------------------------------------------------------------|
G|---12-12--13--12--8----------8-8-8--10-10-10-12----------------------------|
D|---x--x--x--x---x---x2-----x-x-x--x--x--x--x----x2-----------------------|
A|---10-10--11--10--6----------6-6-6--8--8--8--10----------------------------|
D|---------------------------------------------------------------------------|

Guitar 2

e|---------------------------------------------------------------------------|
B|---------------------------------------------------------------------------|
G|---------------------------------------------------------------------------|
D|---6-6-6-6--------8-8-8-8---------10-10-10-10------------------------------|
A|---6-6-6-6---x4---8-8-8-8--x2----10-10-10-10---x2-------------------------|
D|---6-6-6-6--------8-8-8-8---------10-10-10-10------------------------------|


Verse 2



Guitar 1

e|---------------------------------------------------------------------------|
B|---1--1--1--1--1--1--1--1----3--3--3--3----4--4--4-------------------------|
G|--1--1--1--1--1--1--1--1----3--3--3--3----5--5--5-----------x2-------------|
D|---------------------------------------------------------------------------|
A|---------------------------------------------------------------------------|
D|---------------------------------------------------------------------------|
 
e|-----------3-3--------3-3-6-6-3-3-------------------------------------------------|
B|-------4-4--------4-4----------------------------------------------------------|
G|---5-5---------5-5---------------------x4---------------------------------------|
D|---------------------------------------------------------------------------|
A|---------------------------------------------------------------------------|
D|---------------------------------------------------------------------------|


Guitar 2
   
      Pm.........................................   
e|---------------------------------------------------------------------------|
B|---------------------------------------------------------------------------|
G|---------------------------------------------------------------------------|
D|----6-6-6-6---------8-8-8-8---------10-10-10-10----------------------------|
A|----6-6-6-6-----x4--8-8-8-8-----x2--10-10-10-10-----x2---------------------|
D|----6-6-6-6---------8-8-8-8---------10-10-10-10----------------------------|

      Pm.....................   
e|---------------------------------------------------------------------------|
B|---------------------------------------------------------------------------|
G|---------------------------------------------------------------------------|
D|----6-6-6-6---------8-8-8-8------------------------------------------------|
A|----6-6-6-6-----x4--8-8-8-8-----x4-----------------------------------------|
D|----6-6-6-6---------8-8-8-8------------------------------------------------|

      Hard Single Stokes
e|---------------------------------------------------------------------------|
B|---------------------------------------------------------------------------|
G|---------------------------------------------------------------------------|
D|----6-6-6-6---------8-8-8-8---------10-10-10-10----------------------------|
A|----6-6-6-6-----x4--8-8-8-8-----x2--10-10-10-10-----x2---------------------|
D|----6-6-6-6---------8-8-8-8---------10-10-10-10----------------------------|

        
e|---------------------------------------------------------------------------|
B|---------------------------------------------------------------------------|
G|---------------------------------------------------------------------------|
D|----6-6-6-6---------8-8-8-8------------------------------------------------|
A|----6-6-6-6-----x4--8-8-8-8-----x4-----------------------------------------|
D|----6-6-6-6---------8-8-8-8------------------------------------------------|







There you go, have a blast
Any comments or corrections, Email me at ethans_apprentice@hotmail.com


Enjoy!



~Jak












===============================================================================

Related for The Night tab