Song name
# A B C D E F G H I J K L M N O P Q R S T U V W X Y Z

Goodnight Nurse - Milkshake tab

Help us improve GuitareTab! Take a short survey!
Goodnight Nurse
Milkshake (cover, originally by Kelis)
Tabbed by Ashley w

Now I saw one other tab out there for this song, but I thought I would submit mine as 
as an alternate way of playing this song. It is on 2 guitars instead of being compressed 
one, for more variety.

Tuning: Drop C#
2 guitars


Intro
|-------------------------|
|-------------------------|
|-------------------------|
|-0-----0-----0-----0-----|
|-0-----0-----0-----0-----|
|-0-----0-----0-----0-----|
|
|---3-3---3-3---3-3---3-3-|
|-------------------------|
|-------------------------|
|-------------------------|
|-------------------------|
|-------------------------|


Verse (x2)
|----------------------------------------------------------------------|
|----------------------------------------------------------------------|
|----------------------------------------------------------------------|
|-0-0h1--1--0--0----0-0h1--1--0--0----0-0h1--1--0--0----0-0h1--1--0--0-|
|-0-0h1--1--0--0----0-0h1--1--0--0----0-0h1--1--0--0----0-0h1--1--0--0-|
|-0-0h1--1--0--0----0-0h1--1--0--0----0-0h1--1--0--0----0-0h1--1--0--0-|
|
|---3-----------------3-----------------3-----------------3------------|
|-----4-----------------4-----------------4-----------------4----------|
|----------------------------------------------------------------------|
|----------------------------------------------------------------------|
|----------------------------------------------------------------------|
|----------------------------------------------------------------------|


Pre-chorus
|-------------------------|
|-------------------------|
|--8----------------------|
|--8----------------------|
|--6----------------------|
|-------------------------|
|
|-------------------------|
|-------------------------|
|--8----------------------|
|--8----------------------|
|--6----------------------|
|-------------------------|


Chorus
|---------------------------------------------------------|
|---------------------------------------------------------|
|-7-7-7--7-7-7--7-7-7--7-7-7--7-7-7--7-7-7--7-7-7--7-7-7--|
|-7-7-7--7-7-7--7-7-7--7-7-7--7-7-7--7-7-7--7-7-7--7-7-7--|
|-5-5-5--5-5-5--5-5-5--5-5-5--5-5-5--5-5-5--5-5-5--5-5-5--|
|---------------------------------------------------------|
| . .    . .    . .    . .    . .    . .    . .    . .
|---------------------------------------------------------|
|---------------------------------------------------------|
|-7-7-7--7-7-7--7-7-7--7-7-7--7-7-7--7-7-7--7-7-7--7-7-7--|
|-7-7-7--7-7-7--7-7-7--7-7-7--7-7-7--7-7-7--7-7-7--7-7-7--|
|-5-5-5--5-5-5--5-5-5--5-5-5--5-5-5--5-5-5--5-5-5--5-5-5--|
|---------------------------------------------------------|
  . .    . .    . .    . .    . .    . .    . .    . .

|---------------------------------------------------------|
|---------------------------------------------------------|
|-7-7-7--7-7-7--7-7-7--7-7-7--7-7-7--7-7-7--7-7-7--7-7-7--|
|-7-7-7--7-7-7--7-7-7--7-7-7--7-7-7--7-7-7--7-7-7--7-7-7--|
|-5-5-5--5-5-5--5-5-5--5-5-5--5-5-5--5-5-5--5-5-5--5-5-5--|
|---------------------------------------------------------|
| . .    . .    . .    . .    . .    . .    . .    . .
|---------------------------------------------------------|
|---------------------------------------------------------|
|-7-7-7--7-7-7--7-7-7--7-7-7--7-7-7--7-7-7--7-7-7--7-7-7--|
|-7-7-7--7-7-7--7-7-7--7-7-7--7-7-7--7-7-7--7-7-7--7-7-7--|
|-5-5-5--5-5-5--5-5-5--5-5-5--5-5-5--5-5-5--5-5-5--5-5-5--|
|---------------------------------------------------------|
  . .    . .    . .    . .    . .    . .    . .    . .

|---------------------------------------------------------|
|---------------------------------------------------------|
|-7-7-7--7-7-7--7-7-7--7-7-7--7-7-7--7-7-7--7-7-7--7-7-7--|
|-7-7-7--7-7-7--7-7-7--7-7-7--7-7-7--7-7-7--7-7-7--7-7-7--|
|-5-5-5--5-5-5--5-5-5--5-5-5--5-5-5--5-5-5--5-5-5--5-5-5--|
|---------------------------------------------------------|
| . .    . .    . .    . .    . .    . .    . .    . .
|---------------------------------------------------------|
|---------------------------------------------------------|
|-7-7-7--7-7-7--7-7-7--7-7-7--7-7-7--7-7-7--7-7-7--7-7-7--|
|-7-7-7--7-7-7--7-7-7--7-7-7--7-7-7--7-7-7--7-7-7--7-7-7--|
|-5-5-5--5-5-5--5-5-5--5-5-5--5-5-5--5-5-5--5-5-5--5-5-5--|
|---------------------------------------------------------|
  . .    . .    . .    . .    . .    . .    . .    . .

|---------------------------------------------------------|
|---------------------------------------------------------|
|-7-7-7--7-7-7--7-7-7--7-7-7--7-7-7-7-7-------------------|
|-7-7-7--7-7-7--7-7-7--7-7-7--7-7-7-7-7-------------------|
|-5-5-5--5-5-5--5-5-5--5-5-5--5-5-5-5-5-------------------|
|---------------------------------------------------------|
| . .    . .    . .    . .
|---------------------------------------------------------|
|---------------------------------------------------------|
|-7-7-7--7-7-7--7-7-7--7-7-7--7-7-7-7-7-------------------|
|-7-7-7--7-7-7--7-7-7--7-7-7--7-7-7-7-7-------------------|
|-5-5-5--5-5-5--5-5-5--5-5-5--5-5-5-5-5-------------------|
|---------------------------------------------------------|
  . .    . .    . .    . .

|-------------------------------------------------|
|-------------------------------------------------|
|-8-8---8-7--7------------8-8---8-7--7------------|
|-8-8---8-7--7------------8-8---8-7--7------------|
|-6-6---6-5--5------------6-6---6-5--5------------|
|-------------------------------------------------|
|
|-------------------------------------------------|
|-------------------------------------------------|
|-8-8---8-7--7------------8-8---8-7--7------------|
|-8-8---8-7--7------------8-8---8-7--7------------|
|-6-6---6-5--5------------6-6---6-5--5------------|
|-------------------------------------------------|

|-------------------------------------------------|
|-------------------------------------------------|
|-8-8---8-7--7------------8-8---8-7--7------------|
|-8-8---8-7--7------------8-8---8-7--7------------|
|-6-6---6-5--5------------6-6---6-5--5------------|
|-------------------------------------------------|
|
|-------------------------------------------------|
|-------------------------------------------------|
|-8-8---8-7--7------------8-8---8-7--7------------|
|-8-8---8-7--7------------8-8---8-7--7------------|
|-6-6---6-5--5------------6-6---6-5--5------------|
|-------------------------------------------------|


Verse (x2)
|----------------------------------------------------------------------|
|----------------------------------------------------------------------|
|----------------------------------------------------------------------|
|-0-0h1--1--0--0----0-0h1--1--0--0----0-0h1--1--0--0----0-0h1--1--0--0-|
|-0-0h1--1--0--0----0-0h1--1--0--0----0-0h1--1--0--0----0-0h1--1--0--0-|
|-0-0h1--1--0--0----0-0h1--1--0--0----0-0h1--1--0--0----0-0h1--1--0--0-|
|
|---3-----------------3-----------------3-----------------3------------|
|-----4-----------------4-----------------4-----------------4----------|
|----------------------------------------------------------------------|
|----------------------------------------------------------------------|
|----------------------------------------------------------------------|
|----------------------------------------------------------------------|

Bridge
|-----------------------------------------------------------------------|
|-----------------------------------------------------------------------|
|-----------------------------------------------------------------------|
|-0-0h1--1--0--0----0-0h1--1--0--0----0-0h1--1--0--0----0-0h1-1-0-0-0-0-|
|-0-0h1--1--0--0----0-0h1--1--0--0----0-0h1--1--0--0----0-0h1-1-0-0-0-0-|
|-0-0h1--1--0--0----0-0h1--1--0--0----0-0h1--1--0--0----0-0h1-1-0-0-0-0-|
|
|---3-----------------3-----------------3-----------------3-------------|
|-----4-----------------4-----------------4-----------------4-----------|
|-----------------------------------------------------------------------|
|-----------------------------------------------------------------------|
|-----------------------------------------------------------------------|
|-----------------------------------------------------------------------|


|---------------------------------------------------------------------------|
|---------------------------------------------------------------------------|
|-5---5--5---5-5-5---4---4--4---4-4-4---------------------------------------|
|-5---5--5---5-5-5---4---4--4---4-4-4---1---1--1---1-1-1---3---3--3---3-3-3-|
|-3---3--3---3-3-3---2---2--2---2-2-2---1---1--1---1-1-1---3---3--3---3-3-3-|
|---------------------------------------1---1--1---1-1-1---3---3--3---3-3-3-|
|
|---------------------------------------------------------------------------|
|---------------------------------------------------------------------------|
|-5---5--5---5-5-5---4---4--4---4-4-4---------------------------------------|
|-5---5--5---5-5-5---4---4--4---4-4-4---1---1--1---1-1-1---3---3--3---3-3-3-|
|-3---3--3---3-3-3---2---2--2---2-2-2---1---1--1---1-1-1---3---3--3---3-3-3-|
|---------------------------------------1---1--1---1-1-1---3---3--3---3-3-3-|

|---------------------------------------------------------------------------|
|---------------------------------------------------------------------------|
|-5---5--5---5-5-5---4---4--4---4-4-4---------------------------------------|
|-5---5--5---5-5-5---4---4--4---4-4-4---1---1--1---1-1-1---3---3--3---3-3-3-|
|-3---3--3---3-3-3---2---2--2---2-2-2---1---1--1---1-1-1---3---3--3---3-3-3-|
|---------------------------------------1---1--1---1-1-1---3---3--3---3-3-3-|
|
|---------------------------------------------------------------------------|
|---------------------------------------------------------------------------|
|-5---5--5---5-5-5---4---4--4---4-4-4---------------------------------------|
|-5---5--5---5-5-5---4---4--4---4-4-4---1---1--1---1-1-1---3---3--3---3-3-3-|
|-3---3--3---3-3-3---2---2--2---2-2-2---1---1--1---1-1-1---3---3--3---3-3-3-|
|---------------------------------------1---1--1---1-1-1---3---3--3---3-3-3-|

|---------------------------------------------------------------------------|
|---------------------------------------------------------------------------|
|-5---5--5---5-5-5---4---4--4---4-4-4---------------------------------------|
|-5---5--5---5-5-5---4---4--4---4-4-4---1---1--1---1-1-1---3---3--3---3-3-3-|
|-3---3--3---3-3-3---2---2--2---2-2-2---1---1--1---1-1-1---3---3--3---3-3-3-|
|---------------------------------------1---1--1---1-1-1---3---3--3---3-3-3-|
|
|---------------------------------------------------------------------------|
|---------------------------------------------------------------------------|
|-5---5--5---5-5-5---4---4--4---4-4-4---------------------------------------|
|-5---5--5---5-5-5---4---4--4---4-4-4---1---1--1---1-1-1---3---3--3---3-3-3-|
|-3---3--3---3-3-3---2---2--2---2-2-2---1---1--1---1-1-1---3---3--3---3-3-3-|
|---------------------------------------1---1--1---1-1-1---3---3--3---3-3-3-|

|---------------------------------------------------------------------------|
|---------------------------------------------------------------------------|
|-4---4--4---4-4-4---4---4--4---4-4-4---4---4--4---4-4-4---4------4---------|
|-4---4--4---4-4-4---4---4--4---4-4-4---4---4--4---4-4-4---4------4---------|
|-2---2--2---2-2-2---2---2--2---2-2-2---2---2--2---2-2-2---2------2---------|
|---------------------------------------------------------------------------|
|
|---------------------------------------------------------------------------|
|---------------------------------------------------------------------------|
|-4---4--4---4-4-4---4---4--4---4-4-4---4---4--4---4-4-4---4------4---------|
|-4---4--4---4-4-4---4---4--4---4-4-4---4---4--4---4-4-4---4------4---------|
|-2---2--2---2-2-2---2---2--2---2-2-2---2---2--2---2-2-2---2------2---------|
|---------------------------------------------------------------------------|

*few bars of silence*

|---------------------------------------------------------------------------|
|---------------------------------------------------------------------------|
|---------------------------------------------------------------------------|
|---------------------------------------------------------------------------|
|---------------------------------------------------------------------------|
|---------------------------------------------------------------------------|
|
|---------------------------------------------------------------------------|
|-4-4-4-4-3-3-3-3-3-3-3-3-3-3-3-3-4-4-4-4-3-3-3-3-3-------------------------|
|---------------------------------------------------------------------------|
|---------------------------------------------------------------------------|
|---------------------------------------------------------------------------|
|---------------------------------------------------------------------------|
| . . . . . . . . . . . . . . . . . . .


Verse (x2)
|----------------------------------------------------------------------|
|----------------------------------------------------------------------|
|----------------------------------------------------------------------|
|-0-0h1--1--0--0----0-0h1--1--0--0----0-0h1--1--0--0----0-0h1--1--0--0-|
|-0-0h1--1--0--0----0-0h1--1--0--0----0-0h1--1--0--0----0-0h1--1--0--0-|
|-0-0h1--1--0--0----0-0h1--1--0--0----0-0h1--1--0--0----0-0h1--1--0--0-|
|
|---3-----------------3-----------------3-----------------3------------|
|-----4-----------------4-----------------4-----------------4----------|
|----------------------------------------------------------------------|
|----------------------------------------------------------------------|
|----------------------------------------------------------------------|
|----------------------------------------------------------------------|


Outro
|-------------------------------------------------|
|-------------------------------------------------|
|-------------------------------------------------|
|-0-----0-----0-----0-----0-----0-----0-----0-----|
|-0-----0-----0-----0-----0-----0-----0-----0-----|
|-0-----0-----0-----0-----0-----0-----0-----0-----|
|
|---3-3---3-3---3-3---3-3---3-3---3-3---3-3---3-3-|
|-------------------------------------------------|
|-------------------------------------------------|
|-------------------------------------------------|
|-------------------------------------------------|
|-------------------------------------------------|

|-------------------------------------------------||
|-------------------------------------------------||
|-------------------------------------------------||
|-0-----0-----0-----0-----0-0h1--1--0-------------||
|-0-----0-----0-----0-----0-0h1--1--0-------------||
|-0-----0-----0-----0-----0-0h1--1--0-------------||
|
|-------------------------------------------------||
|-------------------------------------------------||
|-------------------------------------------------||
|-0-----0-----0-----0-----0-0h1--1--0-------------||
|-0-----0-----0-----0-----0-0h1--1--0-------------||
|-0-----0-----0-----0-----0-0h1--1--0-------------||
Related for Milkshake tab