Song name
# A B C D E F G H I J K L M N O P Q R S T U V W X Y Z

Gorgoroth - Teeth Grinding tab

D Tuning

Intro

-------------------------------------|
-------------------------------------|
-------------------------------------|
-2-2-2-4-4-5-5-5-5-5-----------------|
-2-2-2-2-2-2-2-2-2-2--2-2-2-2-2------|
-0-0-0-0-0-0-0-0-0-0--4-4-4-4-4------|

Verse

----------------------------------------------------------|
----------------------------------------------------------|
------------------4---------0-7---------------------------|
-2-2-2-2-2------6---6-----6-----6---6-6-6-6-6-------------|
-2-2-2-2-2----6-------6-5---------5-4-4-4-4-4-4-5-4-5-4-5-|
-0-0-0-0-0--4-----------------------4-4-4-4-4-------------|
 . . . . .                          . . . . .
Tap to rate this tab
 
# A B C D E F G H I J K L M N O P Q R S T U V W X Y Z