Song name
# A B C D E F G H I J K L M N O P Q R S T U V W X Y Z

Gorillaz - On Melancholy Hill Acoustic tab

~On melancholy hill~Gorillaz~

Hey this is my first tab it is a simple version of the acoustic, having the capo 
on fret one isn't a necessity but it makes it sound a little bit better.

e|---------------------------------------------------------------|
B|---------------------------------------------------------------|
G|---7----7----7----7----7----7----7----7------------------------|
D|---------------------------------------------------------------|
A|-5----5----5----5----5----5----5----5--------------------------|
E|---------------------------------------------------------------|
  Up on melancholy hill there's a plastic
e|---------------------------------------------------------------|
B|---------------------------------------------------------------|
G|---------------------------------------------------------------|
D|---7----7----7----7----7----7----7----7------------------------|
A|---------------------------------------------------------------|
E|-5----5----5----5----5----5----5----5--------------------------|
  Tree                  are you here with
e|---------------------------------------------------------------|
B|---------------------------------------------------------------|
G|---------------------------------------------------------------|
D|---9----9----9----9----9----9----9----9------------------------|
A|---------------------------------------------------------------|
E|-7----7----7----7----7----7----7----7--------------------------|
  Me?
e|---------------------------------------------------------------|
B|---------------------------------------------------------------|
G|---------------------------------------------------------------|
D|---5----5----5----5------7----7----7----7----------------------|
A|---------------------------------------------------------------|
E|-3----3----3----3------5----5----5----5------------------------|
  Just looking out on a day of another dream
e|---------------------------------------------------------------|
B|---------------------------------------------------------------|
G|---------------------------------------------------------------|
D|---5----5----5----5------7----7----7----7----------------------|
A|---------------------------------------------------------------|
E|-3----3----3----3------5----5----5----5------------------------|

Just repeat this until the end of the song :)

~Alessio, Bass.Lord (Not just bass)
Tap to rate this tab
# A B C D E F G H I J K L M N O P Q R S T U V W X Y Z